Artists by letter: A B C D E F G H I J K L M N O P Q R S T U V W X Y Z 0-9

 
La Grieta
EN ESTA CANCION, HAY QUE AFINAR LA GUITARRA EN RE


e|-------------------------------------------|
B|-------------------------------------------|
G|-------------------------------------------|
D|-------------------------------------------|
A|-4-2-4-2-4-2-4-2-4-2-4-2-4-2-4-2-4-5-5-5---|
D|-4-2-4-2-4-2-4-2-4-2-4-2-4-2-4-2-4-5-5-5---|

No quisiera dejarla caer
No quisiera mirarla morir
Esta sangre que grita entre mi
Es por odio y dejo que pase otra vez.

EL TRASTE 7 LO HACES CON ARMĂ"NICOS

E|---------------7--------------7-----------7---------------|
B|-----------7---------------7------------7-----------------|
G|-------7---------------7--------------7-------------------|
D|----------------------------------------------------------|
A|-4-3-2-------------4-3-2------------2-4-3------------2-4-3|
D|-4-3-2-------------4-3-2------------2-4-3------------2-4-3|


CORO....

E|-----2-----2-------|
B|-----2-----2-------|
G|-----2-----2-----3-|
D|-----------------3-|
A|-2-4---2-4---2-4-1-|
D|-2-4---2-4---2-4---|

La grieta
La grieta
La grieta
La grieta en tus manos está.

e|-------------------------------------------|
B|-------------------------------------------|
G|-------------------------------------------|
D|-------------------------------------------|
A|-4-2-4-2-4-2-4-2-4-2-4-2-4-2-4-2-4-5-5-5---|
D|-4-2-4-2-4-2-4-2-4-2-4-2-4-2-4-2-4-5-5-5---|

No quisiera dejarla morir
No quisiera dejarla caer
Esta sangre que fluye entre ti
Es por odio no quiero que pase otra vez

E|---------------7--------------7-----------7---------|
B|-----------7---------------7------------7-----|
G|-------7---------------7--------------7-------------|
D|----------------------------------------------------------|
A|-4-3-2-------------4-3-2------------2-4-3------------2-4-3|
D|-4-3-2-------------4-3-2------------2-4-3------------2-4-3|

CORO..

E|-----2-----2-------|
B|-----2-----2-------|
G|-----2-----2-----3-|
D|-----------------3-|
A|-2-4---2-4---2-4-1-|
D|-2-4---2-4---2-4---|
La grieta
La grieta
La grieta
La grieta en tus manos esta.

EN ESTA PARTE HAY SILENCIO Y EL BAJO TOCA EL SOLO....

SOLO....

DESPUÉS DEL SOLO ENTRA LA GUITARRA CON ESO

e|------------|
B|------------|
G|------------|
D|-4-2--------|
A|-----3-3h4--|
D|-----------4|

e|-----------------------------------------------------------|
B|-----------------------------------------------------------|
G|------6-5-4-------6-5-4-------6-5-4-------6-5-4-------6-5-4|
D|------6-5-4-------6-5-4-------6-5-4-------6-5-4-------6-5-4|
A|4-3-2-4-3-2-4-3-2-4-3-2-4-3-4-4-3-2-4-3-2-4-3-2-4-3-2-4-3-2|
D|4-3-2-------4-3-2-------4-3-2-------4-3-2-------4-3-2------|

e|-------------------------------------------|
B|-------------------------------------------|
G|-------------------------------------------|
D|-------------------------------------------|
A|-4-2-4-2-4-2-4-2-4-2-4-2-4-2-4-2-4-5-5-5---|
D|-4-2-4-2-4-2-4-2-4-2-4-2-4-2-4-2-4-5-5-5---|

Yo quisiera dejarla correr
Yo quisiera no verla caer
Esta sabia que fluye entre mi
Es por odio y dejo que pase otra vez.

CORO..

E|-----2-----2-------|
B|-----2-----2-------|
G|-----2-----2-----3-|
D|-----------------3-|
A|-2-4---2-4---2-4-1-|
D|-2-4---2-4---2-4---|

La grieta
La grieta
La grieta
La grieta
La grieta
La grieta....

E|-----2-----2-------|
B|-----2-----2-------|
G|-----2-----2-----3-|
D|-----------------3-|
A|-2-4---2-4---2-4-1-|
D|-2-4---2-4---2-4---|
La grieta
La grieta
La grieta

ESPERO QUE LES SIRVA

ÂżDUDAS? PUEDES 
TUITEARME A @PabloTwittah ^^
 
 
Extincion - La Grieta :: indexed at Ultimate Guitar.
La Grieta tabs @ 911Tabs
People who played Extincion - La Grieta also played these songs by Extincion:
La Grieta Tab, La Grieta Tab, Orange Buddha Tab, La Grieta, Orange Buddha

Quick tip, so you can enjoy La Grieta even more:

Try out the AutoScroller option ... It scrolls the page for you, so you can totally focus on nailing that solo. You can choose among different speeds using your mouse or your keyboard (keys 0, 1, 2 and 3).

Show us your talent, perform La Grieta!

Here you can post a video or audio performance. Tell me more ...
Where can we find your performance? Tell me more ...
Your comment:
Please, log in to post your performance.