Artists by letter: A B C D E F G H I J K L M N O P Q R S T U V W X Y Z 0-9

 
Were All The Way
---------------------------------------------------------------------------
                We’re All the Way " Eric Clapton
---------------------------------------------------------------------------
Tabbed by: maguri
Tuning: Standard

Eric Clapton 
We’re All the Way (1977)
(Don Williams)

From: "Slowhand"

There are many minor variations, so I tabbed out the main parts only.

---------------------------------------------------------------------------

INTRO / RIFF
  D       Dsus4 D       Dsus4 D     D       Dsus4 D        A/D G/D   D
  1 + 2 + 3 + 4 +  1 + 2 + 3 + 4 +  1 + 2 + 3 + 4 +  1 + 2 + 3 + 4 +
e|----------------|----------------|----------------|----------------|
B|----7---8---107-|----7---8p7-----|----7---8---107-|----7---10--8---|7
G|--7-------------|--7---------9-7-|--7-------------|--7-------------|
D|7-----7---7-----|7-----7---------|7-----7---7-----|7----/11--9---7-|
A|----------------|----------------|----------------|----------------|
E|----------------|----------------|----------------|----------------|

LINK to chorus middle part
  D                A
  1 + 2 + 3 + 4 +  1 + 2 + 3 + 4 +  
e|--------9---7---|----------------|
B|----7-----------|10--------------|
G|--7---9---7-----|----------------|
D|7------------/11|----------------|
A|----------------|----------------|
E|----------------|----------------|

CHORUS middle part (1)
  A                D                A                G
  1 + 2 + 3 + 4 +  1 + 2 + 3 + 4 +  1 + 2 + 3 + 4 +  1 + 2 + 3 + 4 +
e|----------------|----------------|----------------|--------------10|
B|------------10--|---7h8p7--------|----10----10----|----8-----8-----|
G|----------9-----|--7-------7-----|--9-----9-------|--7-----7-------|
D|--------11----11|7-------7-------|11--------------|9-----9---------|
A|----------------|----------------|----------------|----------------|
E|----------------|----------------|----------------|----------------|
 G
  1 + 2 + 3 + 4 +  
e|----------------|
B|----8-----9-----|
G|--7-----7-------|
D|9-----9---------|
A|----------------|
E|----------------|

CHORUS middle part (2)
  A                D                A                G
  1 + 2 + 3 + 4 +  1 + 2 + 3 + 4 +  1 + 2 + 3 + 4 +  1 + 2 + 3 + 4 +
e|----------------|----10--9-------|----------------|--------------10|
B|------------10--|-------------10-|----10----10----|----8-----8-----|
G|----------9-----|--7-------------|--9-----9-------|--7-----7-------|
D|--------11----11|7-----7---7-----|11--------------|9-----9---------|
A|----------------|----------------|----------------|----------------|
E|----------------|----------------|----------------|----------------|
 G
  1 + 2 + 3 + 4 +  
e|----------------|
B|----7-----7-----|
G|--7-----7-------|
D|9-----9---------|
A|----------------|
E|----------------|

---------------------------------------------------------------------------

INTRO
| D Dsus4 | D Dsus4 D  | D Dsus4 | D   A/D G/D |


VERSE
D                                      G
There's no cause to think that I won't stay
G                              | D Dsus4 | D   A/D G/D |
Haven't I been with you all the way?
D                                G
There's no time like now to make amends
G                           | D Dsus4 | D |
After all, we are more than friends


CHORUS
D          G              | D Dsus4 | D   A/D G/D |
This could be the time for you and me
D        G          | D Dsus4 |    D   |
We could go wherever we should be [LINK]
   A                             D
So don't put words between us we shouldn't say
    A             
And don't be acting halfway
         G                  D
When you know we're all the way


INTERLUDE
| D Dsus4 | D   A/D G/D | D Dsus4 | D   A/D G/D |


VERSE
D                                    G
There are times when I don't see the light
     G                           | D Dsus4 | D   A/D G/D |
Well I don't know if what I do is right
    D                                    G
But when I'm wrong, it's never meant for you
    G                               | D Dsus4 | D |
So, don't confuse my love with what I do


CHORUS
D          G              | D Dsus4 | D   A/D G/D |
This could be the time for you and me
D        G          | D Dsus4 |    D   |
We could go wherever we should be [LINK]
   A                             D
So don't put words between us we shouldn't say
    A             
And don't be acting halfway
         G                  D
When you know we're all the way


INTERLUDE
| D Dsus4 | D   A/D G/D | D Dsus4 | D   A/D G/D | D


 
 
Eric Clapton - Were All The Way :: indexed at Ultimate Guitar.
Were All The Way tabs @ 911Tabs

About the artist behind Were All The Way:

Eric Patrick Clapton, CBE (born 30 March 1945), is a English blues-rock guitarist, singer, songwriter and composer. He is one of the most successful musicians of the 20th and 21st centuries,[1] garnering an unprecedented three inductions into the Rock and Roll Hall of Fame (The Yardbirds, Cream, and solo). Often viewed by critics and fans alike as one of the greatest guitarists of all time[2], Clapton was ranked fourth in Rolling Stone Magazine's list of the "100 Greatest Guitarists of All Time"[3] and #53 on their list of the Immortals: 100 Greatest Artists of All Time.[4]

Although Clapton's musical style has varied throughout his career, it has always remained rooted in the blues. Clapton is credited as an innovator in several phases of his career, which have included blues-rock (with John Mayall & the Bluesbreakers and The Yardbirds) and psychedelic rock (with Cream). Clapton has also achieved great chart success in genres ranging from Delta blues (Me and Mr. Johnson) to pop ("Change the World") and reggae (Bob Marley's "I Shot the Sheriff"). Clapton also achieved fame with Derek and the Dominos through the hit song "Layla".

Indexed at Wikipedia.

Show us your talent, perform Were All The Way!

Here you can post a video or audio performance. Tell me more ...
Where can we find your performance? Tell me more ...
Your comment:
Please, log in to post your performance.