Artists by letter: A B C D E F G H I J K L M N O P Q R S T U V W X Y Z 0-9

 
Reptile
REPTILE

As recorded by Eric Clapton
(From the 2001 Album REPTILE)

Music by Eric Clapton

Transcribed by Slowhand 


Gtr I (E A D G B E) - 'Eric Clapton - Acoustic Guitar (Nylon)'
Gtr II (E A D G B E) - 'Eric Clapton - Electric Guitar '


  Moderate Bossa Nova Q=101
  Asus2
 4/4
  Gtr I (Ac. Nylon Str. Gtr.)
  S S S S +S  S S S +S  S S S +S  S S S
|---------------------------------------|
|---0---------0---------0---------0-----|
|-------2-(2)-----2-(2)-----2-(2)-----2-|
|-----2---------2---------2---------2---|
|-0-------------------------------------|
|---------------------------------------|
|
| Gtr II (El. Gtr.)
| H                  Q         Q
|-----------------------------^0--------|
|-----------------------------^0--------|
|-----------------------------^7--------|
|-----------------------------^7--------|
|-----------------------------^0--------|
|---------------------------------------|


  Amaj7
   S S S S +S  S S S +S  S S S +S  S S S
|----------------------------------------|
|----0---------0---------0---------0-----|
|--------2-(2)-----2-(2)-----2-(2)-----2-|
|------2---------2---------2---------2---|
|--0-------------------------------------|
|----------------------------------------|
|
|  H                 +Q        +S  S S S
|-^0-----------------(0)-------(0)-------|
|-^0-----------------(0)-------(0)-0-----|
|-^6-----------------(6)-------(6)---6---|
|-^6-----------------(6)-------(6)-----6-|
|-^0-----------------(0)-------(0)-------|
|----------------------------------------|


  S S S S +S  S S S +S  S S S +S  S S S    Q    Q  S S S S S S S S
|---------------------------------------|---------------------------||
|---0---------0---------0---------0-----|---------------------------||
|-------2-(2)-----2-(2)-----2-(2)-----2-|-------x--4h6---4---2---1--||
|-----2---------2---------2---------2---|----------4h6---4---2---1--||
|-0-------------------------------------|--0-----------0------------||
|---------------------------------------|---------------------------||
|
| W                                       +Q    Q  S E   S S S S S
|---------------------------------------|---------------------------||
|---------------------------------------|----------------5---7---7s=||
|-6-------------------------------------|-(6)\-----6h7--------------||
|---------------------------------------|---------------------------||
|---------------------------------------|---------------------------||
|---------------------------------------|---------------------------||


    $
    $$
    Badd6add9                 E13
    E E S E S S S S S S S E    E  E S S S S +E    S S +S  S S S
||--------------------------|-----------------------------------|
||o---2-----2-------2-------|-----2-------2-(2)-----2-(2)-----0-|
||----1---1-1---1---1---1---|-----1---1---1-(1)-----1-(1)-1-----|
||--------1-----1-----------|---------0-------------------0-----|
||o-2---2-----2---2---2---2-|-----------------------------------|
||--------------------------|--0----0---0---------0---------0---|
|
|   ~~~~~~~~~~~~~~~~~~~~~~~~~~~~~~
|   W                         +Q    E   S S  S  E   S  S  S E
||--------------------------|-----------------------------------|
||o-9-----------------------|-(9)------------9--9---7-----------|
||--------------------------|-------------6---------------9-----|
||--------------------------|-----------------------------------|
||o-------------------------|-----------------------------------|
||--------------------------|-----------------------------------|


    Asus2
    E  E    S  E     S +S  S S S +S  E S
|-----------------------------------------|
|------0-------------0-(0)-0---0-(0)------|
|------2-------2-----2-(2)-2---2-(2)-2----|
|------2-------------2-(2)-----2-(2)-2-2--|
|---0-------0----------------0------------|
|-----------------------------------------|
|
| a E.   S +E    a E   +H
|-----------------------------------------|
|--------5-(5)----------------------------|
|-4s6------------6s4---(4)----------------|
|----------------6s4---(4)----------------|
|-----------------------------------------|
|-----------------------------------------|


                                Badd6add9
  E E +S  E S S S S S S S S S   E    E  S  E S +S  S S S +S  S S S
|-----------------------------|------------------------------------|
|---0-(0)---------------------|------2-------2-(2)-2---2-(2)-------|
|---2-(2)-2---4h6---4---2---1-|------1-----1-1-(1)-1---1-(1)-1---0-|
|---------2---4h6---4---2---1-|------------1-----------------1-----|
|-0---------0-----0-----------|-2-------2------------2---------2---|
|-----------------------------|------------------------------------|
|
|                                    ~~~~~~~~~~~~~~
| H           S E   S S S S S   S  S E +Q      +H
|-----------------------------|------------------------------------|
|---------------------5---7-9-|---10-9-(9)-----(9)-----------------|
|---------------6---7---------|------------------------------------|
|-----------------------------|------------------------------------|
|-----------------------------|------------------------------------|
|-----------------------------|------------------------------------|


                      To Dbl. Coda
  E7b13
  E E +S  E   S +E.     S +S  S E
|----------------------------------|
|---2-(2)-----2-(2)-----2-(2)------|
|---1-(1)-1---1-(1)-----1-(1)-1----|
|---------0-------------0-(0)-0----|
|----------------------------------|
|-0-----------------------------0--|
|
| Q    S  S S S  S  S S S  S  S E
|----------------9--9---7----------|
|-------------9---------------9----|
|---------7h9----------------------|
|----------------------------------|
|----------------------------------|
|----------------------------------|


    Asus2
    E  E    S  E   S +S  S   S S   +S E.
|------------------------------0---(0)-------|
|------0-----------0-(0)-------0---(0)0------|
|------2-------2---2-(2)-----2--------2------|
|------2-------2---2-(2)-2------------2------|
|---0-------0--------------------------------|
|--------------------------------------------|
|
|                ~~~~~~~~
| a E.   S +E    E   +E    a S S a  S S  S S
|--------------------------------------------|
|-5s7------------5---(5)-------5-------------|
|--------6-(6)-------------4s6---6s=4p2------|
|----------------------------------------4p2-|
|--------------------------------------------|
|--------------------------------------------|


  F#m       Bm                   G#m7          C#7
  E E S E   S +S  E   S Q        S E S S S E   +S  E S E E
|------------------------------|-------------------------4--|
|---2---2---------2-----3------|---4-----4---------6---7-7--|
|---2---2---------2-----4------|---4-----4---------4---4-4--|
|-------2----------------------|---4-----4------------------|
|-----------2-(2)-----2--------|-----------4---(4)---4------|
|-2---2------------------------|-4---4----------------------|
|
| ~
| Q   E   S S  S  S S S S a E.   H           a  Q      Q
|------------------------------|----------------------------|
|--------------2--2---3---3s5--|-4-----------4s=6------4----|
|--------------2--2---4---4s6--|-4-----------4s=6------4----|
|-4---------4------------------|----------------------------|
|------------------------------|----------------------------|
|------------------------------|----------------------------|


                           To Coda
  F#m7         Bm
  E E S E    S +S  S S S E      E
|----------------------------------|
|---2---2----------2-----3---------|
|---2---2----------2-----4---------|
|---2---2--------------------------|
|------------2-(2)-----2--------2--|
|-2---2----------------------------|
|
| Q   E   S  S  S  S S S S a E.
|----------------------------------|
|-2-------------7--7---5-----------|
|-2---------/6-------------4s6-----|
|----------------------------------|
|----------------------------------|
|----------------------------------|


 1.
  A/E             E               A
  E E S S S S +S  E   S E   E      H       S S S S S S S S
|-----------------0-------------|----------------------------||
|---2---2---0-(0)-----2-----0---|---------------------------o||
|---2---2---1-(1)-----2-----1---|----------4h6---4---2---1---||
|---2-------------------2-------|----------4h6---4---2---1---||
|-------------------------------|--0-----------0------------o||
|-0---0-------------------------|----------------------------||
|
|                             ~~~~~~~~
| H            S  S S S S S S S   +E  E Q  S E   S S S S S
|-------------------------------|----------------------------||
|-------------------------------|----------------5---7---7/-o||
|-4-------------------2-4p2---2-|-(2)------6h7---------------||
|-----------------2h4-------4---|----------------------------||
|-------------------------------|---------------------------o||
|-------------------------------|----------------------------||


  2.
  A/E              E                Cmaj7          Am7
  E  S S +S  E   S +S  E S +E  E     E E S E S +S      E S E E
|----------------------0---------||------------------------------|
|----2-------2---0-(0)---2-(2)-0-||----5---5-----------5---5-----|
|----2-------2---1-(1)---2-(2)-1-||----4---4-----------5---5-----|
|----2-------2-------------------||----5---5-----------5---5-----|
|--------------------------------||--3---3-----------------------|
|-0----0-(0)---------------------||----------5-(5)-------5---5---|
|
|                                                              ~
| Q.           E    Q       Q        H          S  a a E S E S S
|--------------------------------||------------------------------|
|-------------------2-------3----||-/5-----------------5-3-------|
|-4-----------------2-------4----||-/5---------------x-----5-4---|
|--------------------------------||----------------x-----------7-|
|--------------------------------||------------------------------|
|--------------------------------||------------------------------|


  Dm7             G7sus4            Cmaj7       Am7
   E  E    S  S S S +S  E S E S S   E E S E   S +S  E   S E      E
|---------------------------------|--------------------------------|
|-----3-------3---------3---3---5-|---5---5---------5-----5--------|
|-----5-------5---------5---5---4-|---4---4---------5-----5--------|
|-----3-------3---------3---3---5-|---5---5---------5-----5--------|
|--5-------5----------------------|-----3--------------------------|
|-----------------3-(3)---3---3---|-3---------5-(5)-----5--------5-|
|
|          ~~~
| +E  S S +E    E    H              Q   E   S S  S  S S S S a E.
|---------------------------------|--------------------------------|
|---------------------------------|--------------5--5---6---6s8----|
|---------------------------------|--------------------------------|
|-(7)-5-5-(5)---7-----------------|-----------5--------------------|
|---------------------------------|--------------------------------|
|---------------------------------|--------------------------------|


  Dm7          G7sus4
  S E S +S   E S +S  E   S E   E
|-----------------------------------|
|---3--------3-------3-----3--------|
|---5--------5-------5-----5--------|
|---3--------3-------3-----3--------|
|-5---5-(5)-------------------------|
|--------------3-(3)-----3-----3----|
|
| ~~~~~~~~~~~                    ~
| Q     +Q        S  S S S S S S S
|-----------------------------------|
|-----------------------------------|
|-7-----(7)\-------------5-7p5---5--|
|--------------------5h7-------7----|
|-----------------------------------|
|-----------------------------------|


  Cmaj7     Am7
   E  E S E S +S      E S E E
|--------------------------------|
|-----5---5-----------5---5------|
|-----4---4-----------5---5------|
|-----5---5-----------5---5------|
|--3----3------------------------|
|-----------5-(5)-------5---5----|
|
|  ~~~                         ~~~
| +E  E Q      S  a a E S E S  S
|--------------------------------|
|---------------------5-3--------|
|-(5)---------------x-----5-4----|
|-----7-----------x-----------/7-|
|--------------------------------|
|--------------------------------|


  Dm7             G7sus4           Cmaj7     Am7
   E  E    S  E   S +S  E S E. S   E E S E   S +S  E   S E      E
|--------------------------------|--------------------------------|
|-----3-------3---------3---3----|---5---5---------5-----5--------|
|-----5-------5---------5---5--4-|---4---4---------5-----5--------|
|-----3-------3---------3---3----|---5---5---------5-----5--------|
|--3-------5---------------------|-3---3--------------------------|
|-----------------3-(3)---3------|-----------5-(5)-----5--------5-|
|
|~~~~~     ~~~
| +E  S S +E    E    H             Q   S S S S  E    S S S a E.
|--------------------------------|--------------------------------|
|--------------------------------|--------------5----5-6---6s8----|
|--------------------------------|--------------------------------|
|-(7)-5-5-(5)---7----------------|-------5s4s5--------------------|
|--------------------------------|--------------------------------|
|--------------------------------|--------------------------------|


  Dm7        G7sus4      E7
  E  E S E   S E   E      Q
|------------------------------|
|----3---3-----3---------------|
|----5---5-----5---4------1----|
|----3---3-----3----------0----|
|-5----5------------------2----|
|------------3------------0----|
|
| ~~
| Q.       E   S E   a S +E  E
|------------------------------|
|------------------------------|
|-7------------7-7---7s9-(9)-7-|
|------------------------------|
|------------------------------|
|------------------------------|


               D.S. al Coda &
  A                            A/E       E
  Q   Q   S S S S S S S S      E E S S S S +S  E S E   E
|---------------------------||-----------------0-----------||
|-2-------------------------||---2---2---0-(0)---2-----0---||
|-2---x---4h6---4---2---1---||---2---2---1-(1)---2-----1---||
|-2-------4h6---4---2---1---||---2-----------------2-------||
|-0-----------0-------------||-----------------------------||
|---------------------------||-0---0-----------------------||
|
| ~~                           ~
| Q.    E S E   S S S S S      H            S  E S S S S S
|---------------------------||-----------------------------||
|---------------5---7---7/--||-----------------------------||
|-6-------6h7---------------||-4-------------------------5-||
|---------------------------||-------------------5---7-----||
|---------------------------||-----------------7-----------||
|---------------------------||-----------------------------||


  Cmaj7         Am7
  E   E   S E   S   +S  E    S  E    E
|----------------------------------------|
|-----5-----5-----------5-------5--------|
|-----4-----4-----------5-------5--------|
|-----5-----5-----------5-------5--------|
|-3-------3------------------------------|
|---------------5---(5)------5-------5---|
|
|                            ~~~~~~
| S S S S E   S S a  S  S  S S +E  a S S
|----------------------------------------|
|-----------------------8-10-8-(8)-------|
|---7-----5-----5-7h=9-------------8s7p5-|
|-------7-----7--------------------------|
|----------------------------------------|
|----------------------------------------|


  Dm7               G7sus4
  E   E    S  S S S +S  E S E      S S
|---------------------------------------|
|-----3-------3---------3---3--------5--|
|-----5-------5---------5---5--------4--|
|-----3-------3---------3---3--------5--|
|-5--------5----------------------------|
|-----------------3-(3)---3--------3----|
|
|       ~~~~~~
| S S S S +E    S S  Q      S a  E   S
|--------------------------------8------|
|-----------------------------8h10------|
|-7-5---5-(5)------------------------9--|
|-----7---------7-5---------------------|
|---------------------------------------|
|---------------------------------------|


    Cmaj7         Am7
     E E   S E    S +S     E      S E      E
|-------------------------------------------------|
|------5-----5-------------5--------5-------------|
|------4-----4-------------5--------5-------------|
|------5-----5-------------5--------5-------------|
|----3-----3--------------------------------------|
|-----------------5-(5)-----------5--------5------|
|
| a  E S S E    S S  S  a  S S a  S S a  S S a  S
|----8----------------------------8------8------8-|
|-8h10-8---8---10p8-----8h10---8h10---8h10---8h10-|
|--------9----------------------------------------|
|-------------------------------------------------|
|-------------------------------------------------|
|-------------------------------------------------|


  Dm7                   G7sus4
    E  E    S      S  S S +S   E    S E      S S
|------------------------------------------------|
|------3-----------3-----------3------3--------5-|
|------5-----------5-----------5------5--------4-|
|------3-----------3-----------3------3--------5-|
|---5-------5------------------------------------|
|-----------------------3-(3)-------3--------3---|
|
|  +E  S S  S     +S  S S  S   S S  S E      S S
|--(8)-------------------------------------------|
|-(10)-8---10b11r(10)p8-6--8----------8----------|
|--------9--------------------10p8----8b8.5------|
|----------------------------------10-------10p8-|
|------------------------------------------------|
|------------------------------------------------|


  Cmaj7         Am7                     Cmaj7         G7sus4
   E  E   S E   S +S  E  S  E   E       E   E   S S S S +S  E   S E   S   S
|-----------------------------------|---------------------------------------|
|-----5-----5---------5-----5-------|-------3-----3---------3-----3-------5-|
|-----4-----4---------5-----5-------|-------5-----5---------5-----5-------4-|
|-----5-----5---------5-----5-------|-------3-----3---------3-----3-------5-|
|--3------3-------------------------|---5-------5---------------------------|
|---------------5-(5)----5------5---|-----------------3-(3)-----3-----3-----|
|
|                     ~~~~~~~~~
|  E.   S S S S S  S  E.   +E   S S   a S S S S S S S S  S  S S S S S S a S
|-------------5-8-----8----(8)------|---------------------------------------|
|-----------8------------------10-8-|---------------------------5---6---7s8-|
|-------8h9-------------------------|-8s7p5---5---7p5----5--7---------------|
|-10--------------------------------|-------7---------7---------------------|
|-----------------------------------|---------------------------------------|
|-----------------------------------|---------------------------------------|


  Dm7           Am7                  Dm7             G7sus4
   E  E   S E   S +S E   S E   E     E   E   S   S S S +S  E   S E   S S
|----------------------------------|-------------------------------------|
|-----5-----5--------5-----5-------|-----3-------3---------3-----3-----5-|
|-----4-----4--------5-----5-------|-----5-------5---------5-----5-----4-|
|-----5-----5--------5-----5-------|-----3-------3---------3-----3-----5-|
|--3------3------------------------|-5-------5---------------------------|
|---------------5-(5)----5-----5---|-----------------3-(3)-----3-----3---|
|
| +E  S S E   S S  S S S S S S S S   S S S S S a E   S  S  S S S S S E
|----------------------------------|-------------------------------------|
|-(8)-6p5--------------------------|-------------------------------------|
|---------7---5----5h7p5---5-------|-------------------------5h7p5---5---|
|---------------7--------7---7p5---|-----------------5-----7-------7-----|
|--------------------------------7s|=5-3---3---5s7-----------------------|
|----------------------------------|-----5-------------------------------|


    Dm7               Am7
    E E      S  E     S +S    E S   E E
|------------------------------------------|
|-----5---------5-------------5-----5------|
|-----4---------4-------------5-----5------|
|-----5---------5-------------5-----5------|
|---3--------3-----------------------------|
|---------------------5-(5)-----5-----5----|
|
| a E S a S +S  S a E    S  a E S a E S S
|------------------------------------------|
|-----8---------8--------5--6s8-8-----8----|
|-7h9---7h9-(9)---7h9-------7s9---7h9---9/-|
|------------------------------------------|
|------------------------------------------|
|------------------------------------------|


  Dm7                  G7sus4
   E     E     S  S  S  S +S  E     S  E     S       S
|--------------------------------------------------------|
|--------3--------3-----------3--------3-------------5---|
|--------5--------5-----------5--------5-------------4---|
|--------3--------3-----------3--------3-------------5---|
|--5-----------5-----------------------------------------|
|-----------------------3-(3)-------3--------3-----------|
|
|                          ~~~
|  S  S  S  S  S  S  S  S  E     S  S  S  S  S      +S
|-------------------------------------15-13--------------|
|----11-------11-------13-13-------13-------15b17==(15)r-|
|-12----10s12----11s14----------14-----------------------|
|--------------------------------------------------------|
|--------------------------------------------------------|
|--------------------------------------------------------|


  Dm7                Am7
   E  E      S  E    S +S  E S  E  E
|------------------------------------|
|-----5---------5----------5----5----|
|-----4---------4----------5----5----|
|-----5---------5----------5----5----|
|--3---------3-----------------------|
|--------------------5-(5)---5-----5-|
|
|        ~~~~~~~
|  E  S  S  +E     E    Q       E  E
|------------------------------------|
|-13----13-(13)---15--------------13-|
|-12-14------------------------14----|
|------------------------------------|
|------------------------------------|
|------------------------------------|


     Dm7                       G7sus4              Dm7           Am7
      E  E      S      S   S   S +S  E S E   S S   E  E    S E   S +S   E      S E E
|------------------------------------------------|------------------------------------|
|--------3-------------3-------------3---3-----5-|----5------5----------5--------5----|
|--------5-------------5-------------5---5-----4-|----4------4----------5--------5----|
|--------3-------------3-------------3---3-----5-|----5------5----------5--------5----|
|-----5---------5--------------------------------|-3-------3--------------------------|
|------------------------------3-(3)---3-----3---|---------------5-(5)---------5---5--|
|
|                                                  ~
|  a  E  S  S  +E         +E      Q      S S E     E  S S  S E a S +S   S  a E   E E
|-------15---------------------------------8-----|-8----------------------------------|
|-15s16----16-(16)b17====(16)r-------------------|---11-8-10-8------------------------|
|------------------------------------------------|-------------8s9-(9)----------------|
|------------------------------------------------|---------------------10-10s8--------|
|------------------------------------------------|-------------------------------7----|
|------------------------------------------------|------------------------------------|


  Dm7                G7sus4
  E    E     S  S  S  S +S   E     S  E  S  S
|---------------------------------------------|
|------3--------3------------3--------3-----5-|
|------5--------5------------5--------5-----4-|
|------3--------3------------3--------3-----5-|
|-5----------5--------------------------------|
|---------------------3-(3)--------3-----3----|
|
| S S  S  S  S  S  S  S  S   S  S  S  E  S  S
|---------------------------------------------|
|---------------------------------------------|
|---------------------------------12----------|
|--------10-12-10----10-----12s14----12-10----|
|---7s12----------12-----------------------12-|
|---------------------------------------------|


  Dm7        Am7
   E  E  S E S +S   E         S E    E
|------------------------------------------|
|-----5----5--------5-----------5----------|
|-----4----4--------5-----------5----------|
|-----5----5--------5-----------5----------|
|--3-----3---------------------------------|
|------------5-(5)------------5------5-----|
|
|  E  E  Q      S   S     +S  S S S  S a S
|------------------------------------------|
|------------------10b11r(10)p8-6----------|
|---------------------------------8----8s9-|
|-10-10\----------------------------10-----|
|------------------------------------------|
|------------------------------------------|


                                                     D.S.S. al Dbl. Coda &&
  Dm7                 G7sus4  E7              A
   E        E  S  E   S E E   Q               Q  S S E S S S S S S S S
|-------------------------------------------|----------------------------||
|-----------3-----3-----3-0-----------------|-2--------------------------||
|-----------5-----5-----5-----1-------------|-2--0-----4h6---4---2---1---||
|-----------3-----3-----3-----0-------------|-2--------4h6---4---2---1---||
|--5-----------5--------------2-------------|-0--------------------------||
|---------------------3-------0-------------|--------------5-------------||
|
|                                             ~
| +S   S  a E +E    E   E S S S S S    +S     H        S E   S S S S S
|-------------------------------------------|----------------------------||
|-------------------------------------------|----------------5---7---7/--||
|-(9)-------------------------5h7p5b6==(5)r-|-7--------6h7---------------||
|-----10------------------5h7---------------|----------------------------||
|--------10s8-(8)---7---7-------------------|----------------------------||
|-------------------------------------------|----------------------------||


    Asus2
    E  E    S  E   S +S   S S S +S  E.
|-----------------------------0-(0)----------|
|------0-----------0-(0)------0-(0)-0--------|
|------2-------2---2-(2)----2-------2--------|
|------2-------2---2-(2)--2---------2--------|
|---0-------0--------------------------------|
|--------------------------------------------|
|
|                ~~~~~~~~~
| a E.   S +E    E   +S   S S S  S  S  a E
|--------------------------------------------|
|-5s7------------5---(5)\-----5--7--5--------|
|--------6-(6)------------4s6----------5-4---|
|--------------------------------------------|
|--------------------------------------------|
|--------------------------------------------|


  F#m       Bm                   G#m7      C#7
  E E S E   S +S  E   S Q        S E S S E S   +S  E S E E
|------------------------------|-------------------------4-|
|---2---2---------2-----3------|---4-----4---------6---7-7-|
|---2---2---------2-----4------|---4-----4---------4---4-4-|
|-------2----------------------|---4-----4-----------------|
|-----------2-(2)-----2--------|-----------4---(4)---4-----|
|-2---2------------------------|-4---4---------------------|
|
| ~
| Q   E   S S  S  S S S S a E.   H           a  Q      Q
|------------------------------|---------------------------|
|-2------------2--2---3---3s5--|-4-----------4s=6------4---|
|--------------2--2---4---4s6--|-4-----------4s=6------4---|
|-----------4------------------|---------------------------|
|------------------------------|---------------------------|
|------------------------------|---------------------------|


  F#m7      Bm
  E E S E   S +S  S S S  E            E
|----------------------------------------||
|---2---2---------2------3---------------||
|---2---2---------2------4---------------||
|---2---2--------------------------------||
|-----------2-(2)-----2---------------2--||
|-2---2----------------------------------||
|
| Q   S S S S  S  E   S +S       +S   E
|---------------------5-(5)b5.5==(5)r----||
|-2------------7--7-------------------7/-||
|-2-----4p3s4----------------------------||
|----------------------------------------||
|----------------------------------------||
|----------------------------------------||


  G#m7    C#7                 F#m7      Bm7
  E E S E S   +S  S S S E E   E E S E S +S  E     S E   S S
|-------------------------4-|-------------------------------|
|---4---4---------6-----7-7-|---2---2-------3-------3-------|
|---4---4---------4-----4-4-|---2---2-------2-------2-------|
|---4---4---------6-----6---|---2---2-------4-------4-----2-|
|---------4---(4)-----4-----|---------2-(2)-------2-----2---|
|-4---4---------------------|-2---2-------------------------|
|
| ~                                                       ~~~
| H         a  Q        Q     Q   Q      S  T T E   S S S S
|---------------------------|---------------7h8p7---7-5---5-|
|-----------4s=6--------4---|-2-------------------------7---|
|-4---------4s=6--------4---|-2-----------------------------|
|---------------------------|-------------------------------|
|---------------------------|-------------------------------|
|---------------------------|-------------------------------|


  G#m7                C#7
   S  E   S   S E     S +S  E     S E   E
|---------------------------------------4-----|
|-----4---------4-----------6-------7---7-----|
|-----4---------4-----------4-------4---4-----|
|-----4---------4-----------6-----------------|
|---------------------4-(4)-------4-----------|
|--4------4-----------------------------------|
|
|~~~~~                                    ~
| +E    S S a S S S a S +S  S a S S S S S S
|-(5)-----------------------------------------|
|-------7-5-----------------5-----------------|
|-----------5s4p2---4s6-(6)---5s4p2-4-2---2---|
|-----------------4---------------------4-----|
|---------------------------------------------|
|---------------------------------------------|


  F#m7            Bm7                 A/E           E
   E    E   S E   S +S  E   S  E  E   E E  S   S  S S +S  E   S E   E
|-----------------------------------|---------------------0---------------------|
|-------2-----2---------3------3----|---2------2----0-(0)-------2---0-----------|
|-------2-----2---------2------2----|---2------2----1-(1)-------2---1-----------|
|-------2-----2---------4------4----|---2------2----2-(2)-------2---2-----------|
|-----------------2-(2)-----2-----2-|-------------------------------------------|
|--2--------2-----------------------|-0-----------------------0-----------------|
|
|  ~~~
| +S  S S S S S S S  S  S S S +E  E   Q   +S   E.      S  E a S S S S      +S
|-----------------------------------|-------------------------------------------|
|---------2h3-2---------------------|-------------------------------------------|
|-(2)---2-------4-2-----------------|-------------------------------------------|
|-----4--------------4--2---2-(2)-4-|------------------6--7-7s9---7-5b5.5==(5)r-|
|-------------------------4---------|---------/7--------------------------------|
|-----------------------------------|-0---(0)-----------------------------------|


  A/E        E
  E  E S S S S +S  E     S E   E
|------------------0-------------------|
|----2---2-----------------2---0-------|
|----2---2---1-(1)---------2---1-------|
|----2---2-----------------2---2-------|
|--------------------------------------|
|-0----------------------0-------------|
|
| ~~
| Q.       E    S  S a S S S S S S
|--------------------------------------|
|--------------------------------------|
|------------------7-------------------|
|--------------------8s7p5-7-----5b6===|
|-7--------------------------7---------|
|--------------------------------------|


  A/E                E            A5
   E   E S S S S +S  E   S E E    H      S S S S S  S  S S
|--------------------0----------|--------------------------|
|------2---2---0-(0)-------2-0--|--------------------------|
|------2---2---1-(1)-------2-1--|-2------4h6---4----2------|
|------2---2---2-(2)-------2-2--|-2------4h6---4----2------|
|-------------------------------|-0----------0-----------0-|
|--0---------------------0------|--------------------------|
|
|                                 ~~
| +E   E Q        S  S S S E E    Q.   E S E   S S  E.
|-------------------------------|--------------------------|
|----------------------5---3-5\-|--------------5-----------|
|--------------------4---4------|-2------6h7-------/6------|
|-(5)r--------------------------|--------------------------|
|------7------------------------|--------------------------|
|-------------------------------|--------------------------|


  H.=H
  Amaj9
  W               +W
|-0-------------|-(0)-------------*|
|-0-------------|-(0)-------------*|
|-1-------------|-(1)-------------*|
|-2-------------|-(2)-------------*|
|---------------|-----------------*|
|---------------|-----------------*|
|
|                  ~~~~~~~~~~~~
| Q  Q   Q  Q      E  Q.   +H
|---------------|-----------------*|
|----5\-----3\--|-----2----(2)----*|
|---------------|-----------------*|
|-6------4------|--2--------------*|
|---------------|-----------------*|
|---------------|-----------------*|


Duration Legend
---------------
W - whole; H - half; Q - quarter; E - 8th; S - 16th; T - 32nd; X - 64th; a - acciaccatura
+ - note tied to previous; . - note dotted; .. - note double dotted
Uncapitalized letters represent notes that are staccato (1/2 duration)
Irregular groupings are notated above the duration line
Duration letters will always appear directly above the note/fret number it represents the
duration for.  Duration letters with no fret number below them represent rests.  Multi-
bar rests are notated in the form Wxn, where n is the number of bars to rest for.  Low
melody durations appear below the staff

Tablature Legend
----------------
 h   - hammer-on
 p   - pull-off
 b   - bend
 pb  - pre-bend
 r   - bend release (if no number after the r, then release immediately)
 /\  - slide into or out of (from/to "nowhere")
 s   - legato slide
 S   - shift slide
  - natural harmonic
[n]  - artificial harmonic
n(n) - tapped harmonic
 ~   - vibrato
 tr  - trill
 T   - tap
 TP  - trem. picking
 PM  - palm muting
\n/  - tremolo bar dip; n = amount to dip
 \n  - tremolo bar down
 n/  - tremolo bar up
/n\  - tremolo bar inverted dip
 =   - hold bend; also acts as connecting device for hammers/pulls
 <>  - volume swell (louder/softer)
 x   - on rhythm slash represents muted slash
 o   - on rhythm slash represents single note slash

Misc Legend
-----------
 |  - bar
||  - double bar
||o - repeat start
o|| - repeat end
*|  - double bar (ending)
 :  - bar (freetime)
 $  - Segno
 &  - Coda
Tempo markers -  = BPM(8/16=s8/s16), where s8 = swing 8ths, s16 = swing 16ths

 
 
Eric Clapton - Reptile :: indexed at Ultimate Guitar.
Reptile tabs @ 911Tabs

About the artist behind Reptile:

Eric Patrick Clapton, CBE (born 30 March 1945), is a English blues-rock guitarist, singer, songwriter and composer. He is one of the most successful musicians of the 20th and 21st centuries,[1] garnering an unprecedented three inductions into the Rock and Roll Hall of Fame (The Yardbirds, Cream, and solo). Often viewed by critics and fans alike as one of the greatest guitarists of all time[2], Clapton was ranked fourth in Rolling Stone Magazine's list of the "100 Greatest Guitarists of All Time"[3] and #53 on their list of the Immortals: 100 Greatest Artists of All Time.[4]

Although Clapton's musical style has varied throughout his career, it has always remained rooted in the blues. Clapton is credited as an innovator in several phases of his career, which have included blues-rock (with John Mayall & the Bluesbreakers and The Yardbirds) and psychedelic rock (with Cream). Clapton has also achieved great chart success in genres ranging from Delta blues (Me and Mr. Johnson) to pop ("Change the World") and reggae (Bob Marley's "I Shot the Sheriff"). Clapton also achieved fame with Derek and the Dominos through the hit song "Layla".

Indexed at Wikipedia.

Show us your talent, perform Reptile!

Here you can post a video or audio performance. Tell me more ...
Where can we find your performance? Tell me more ...
Your comment:
Please, log in to post your performance.