Artists by letter: A B C D E F G H I J K L M N O P Q R S T U V W X Y Z 0-9

 
Better Tab
Guns N' Roses
"Better" Guitar Tab
Chinese Democracy

NOTE: This is just the rhythm tablature.
~~>~>~
~~>~>~
~~>~>~

INTRO RIFF
(Uses a wah-wah)
eb|--15-17-15-17-15-17-15--17-18-17-15--17-15--13-15-13-15-13----12-13------12-13-15--|
Bb|--15-17-15-17-15-17-15--17-18-17-15--17-15--13-13-13-13-13----13-13----15----------|
Gb|-----------------------------------------------------------------------------------|
Db|-----------------------------------------------------------------------------------|
Ab|-----------------------------------------------------------------------------------|
Db|-----------------------------------------------------------------------------------|

MAIN VERSE RIFF
eb|----------------------------------------------------------|
Bb|----------------------------------------------------------|
Gb|--3-3-3-3--3-3-3--3--3-3-3--3-----------------------------|
Db|--3-3-3-3--3-3-3--3--3-3-3--3-0-0-0-0--0-0-0--3--3-0-0--0-|
Ab|--1-1-1-1--1-1-1--1--1-1-1--1-0-0-0-0--0-0-0--3--3-0-0--0-|
Db|------------------------------0-0-0-0--0-0-0--3--3-0-0--0-|

PRE-CHORUS RIFF
eb|----------------------|
Bb|----------------------|
Gb|--3--3-3-3--5--5-5-5--|
Db|--3--3-3-3--5--5-5-5--|
Ab|--1--1-1-1--3--3-3-3--|
Db|----------------------|

CHORUS RIFF
eb|-------------------|
Bb|-------------------|
Gb|-------------------|
Db|--0--3--5--3--5-3--|
Ad|--0--3--5--3--5-3--|
Db|--0--3--5--3--5-3--|

BRIDGE 1 RIFF
eb|----------------------------------------------|
Bb|----------------------------------------------|
Gb|----------------------------------------------|
Db|----------------------------------------------|x2
Ab|--0--108-0---108-0--108-0-00----0-3-0------|
Db|--0-------0--------0-------0-00----0-3-0-/12--|

Then play that same riff two more times only use power chords::
eb|-------------------------------------------------|
Bb|-------------------------------------------------|
Gb|-----1210-----1210----1210--------------------|
Db|-----1210-----1210----1210--------------------|x2
Ab|--0--10\8-0---10\8-0--10\8-0-00----0-3-0------|
Db|--0--------0---------0--------0-00----0-3-0-/12--|


BRIDGE 2 RIFF
eb|------------------------------------------|
Bb|------------------------------------------|
Gb|------------------------------------------|
Db|------------------------------------------|
Ab|-8XXX3-3-5-0--0-8-7-3XX5-0--0-8-7-3XX5-0--|
Db|-8XXX3-3-5-0--0-8-7-3XX5-0--0-8-7-3XX5-0--|


~~>~>~
~~>~>~>~
~~>~>~
MAIN VERSE RIFF
eb|------------------------------------------------------------|
Bb|------------------------------------------------------------|
Gb|--3-3-3-3--3-3-3--3--3-3-3--3-7-7-7-7--7-7-7-10-10//14-14---|
Db|--3-3-3-3--3-3-3--3--3-3-3--3-7-7-7-7--7-7-7-10-10//14-14---|
Ab|--1-1-1-1--1-1-1--1--1-1-1--1-5-5-5-5--5-5-5--8--8----------|
Db|------------------------------------------------------------|

PRE-CHORUS RIFF
eb|--------------------------|
Bb|--------------------------|
Gb|--10---9---10--7---5---7--|(NO SLIDES AT ALL)
Db|--------------------------|
Ab|--------------------------|
Db|--------------------------|

CHORUS RIFF
eb|----------------------|
Bb|----------------------|
Gb|--7-10--12-10--12-10--|
Db|--7-10--12-10--12-10--|
Ad|--5--8--10--8--10-8---|
Db|----------------------|

BRIDGE 1 RIFF
eb|-------------------------------------------------|
Bb|-----1210-----1210----1210--------------------|
Gb|-----1210-----1210----1210--------------------|
Db|-------------------------------------------------|x2
Ab|--0--------0---------0--------0-00----0-3-0------|
Db|--0--------0---------0--------0-00----0-3-0-/12--|

BRIDGE 2 RIFF
eb|------------------------------------------|
Bb|------------------------------------------|
Gb|------------------------------------------|
Db|------------------------------------------|
Ab|-8XXX3-3-5-0--0-8-7-3XX5-0--0-8-7-3XX5-0--|
Db|-8XXX3-3-5-0--0-8-7-3XX5-0--0-8-7-3XX5-0--|



 
 
Guns N Roses - Better Tab :: indexed at Ultimate Guitar.
Better tabs @ 911Tabs

Quick tip, so you can enjoy Better Tab even more:

Try out the AutoScroller option ... It scrolls the page for you, so you can totally focus on nailing that solo. You can choose among different speeds using your mouse or your keyboard (keys 0, 1, 2 and 3).

Show us your talent, perform Better Tab!

Here you can post a video or audio performance. Tell me more ...
Where can we find your performance? Tell me more ...
Your comment:
Please, log in to post your performance.