Artists by letter: A B C D E F G H I J K L M N O P Q R S T U V W X Y Z 0-9

 
Gina Works At Hearts
DZ Deathrays - Gina Works At Hearts 

My first tab, hence the roughness with timing etc. 

Drop D Tuning

Intro

e | -----------------------------------------------------------------------------------------|
B | -----------------------------------------------------------------------------------------|
G | -----------------------------------------------------------------------------------------|
D | -----------------------------------------------------------------------------------------|  
A | -----------------------------------------------------------------------------------------|
D | -----5-0-4-0-8---2-2/12------------------------------------------------------------------|

Main Riff

e | -----------------------------------------------------------------------------------------|
B | -----------------------------------------------------------------------------------------|
G | -----------------------------------------------------------------------------------------|
D | -----------------------------------------------------------------------------------------|  
A | ------5-0-4-0-8--2-2--/-12---------------------------------------------------------------|
D | ------5-0-4-0-8--2-2--/-12---------------------------------------------------------------|

Chorus 

e | -----------------------------------------------------------------------------------------|
B | --------------------------11-11----------------------------------------------------------|
G | ----------------10-10-10--12-12----------------------------------------------------------|
D | ---15-15-15-15--10-10-10--12-12----------------------------------------------------------|  
A | ---13 13-13-13--12-12-12--10-10----------------------------------------------------------|
D | ----------------12-12-12-----------------------------------------------------------------|


Post Chorus Guitar 1

e | -----------------------------------------------------------------------------------------|
B | -----------------------------------------------------------------------------------------|
G | -----------------------------------------------------------------------------------------|
D | -----------------------------------------------------------------------------------------|  
A | ------8-8-8-8---12-12-12-12---5-5-5-5----------------------------------------------------|
D | ------8-8-8-8---12-12-12-12---5-5-5-5----------------------------------------------------|

Post Chorus Guitar 2

e | -----------------------------------------------------------------------------------------|
B | --------------13-------------------------------------------------------------------------|
G | -----14--14------14----------------------------------------------------------------------|
D | ---------------------15--12---15---------------------------------------------------------|  
A | -----------------------------------------------------------------------------------------|
D | -----------------------------------------------------------------------------------------|


(Main Riff)

(Chorus)

Post Chorus (End with this change up before bridge)

e | -----------------------------------------------------------------------------------------|
B | -----------------------------------------------------------------------------------------|
G | -----------------------------------------------------------------------------------------|
D | -----------------------------------------------------------------------------------------|  
A | ------8-8-8-8---12-12-12-12---5-5-5-5--7-7-7---------------------------------------------|
D | ------8-8-8-8---12-12-12-12---5-5-5-5--7-7-7---------------------------------------------|



Bridge Guitar 1 

e | ------------------------------|-----------------------------------------------------------|
B | ------------------------------|-----------------------------------------------------------|
G | ------------------------------|-----------------------------------------------------------|
D | ------------------------------|-----------------------------------------------------------|  
A | ---15-15--17-17--12-12-14-14--|-----------------8--8--12-12-5-5---------------------------|
D | ---15-15--17-17--12-12-14-14--|-x2 and then-----8--8--12-12-5-5---------------------------|

Bridge Guitar 2 

e | -----------------------------------------------------------------------------------------|
B | -----------------------------------------------------------------------------------------|
G | ------------------------------------10---------------------------------------------------|
D | --------12---12----------12--10h12------------8---8-----8--8h10 8------------------------|  x 2
A | -----------------------------------------------------------------------------------------|
D | ---8-8-----8-------12-12-------------------5-5--5---5-5----------------------------------|

(Post Chorus Riff) 

Post Chorus/Outro Riff Guitar 2

e | -----------------------------------------------------------------------------------------|
B | -----------------------------------------------------------------------------------------|
G | -----------------------------------------------------------------------------------------|
D | ------8h7-7-7-8h7------------------13h12-12-12-13h12-------------------------------------|  
A | -----------------------------------------------------------------------------------------|
D | -----------------------------------------------------------------------------------------|

 
 
Dz Deathrays - Gina Works At Hearts :: indexed at Ultimate Guitar.
Gina Works At Hearts tabs @ 911Tabs
People who played Dz Deathrays - Gina Works At Hearts also played these songs by Dz Deathrays:
No Sleep Tab, Gina Works At Hearts Tab, Northern Lights Tab, Gebbie Street Tab, Gina Works At Hearts Tab, Fixations Tab

Quick tip, so you can enjoy Gina Works At Hearts even more:

If you spend just 10 seconds to register, you will be able to comment on all the chords and tabs and rate them. You will as well be able to comment on videos of your fellow guitarists and give them ratings from 1 to 5 ... And - of course - you can share your own videos with them and see what they think of you. :)
Click here to join us!

Show us your talent, perform Gina Works At Hearts!

Here you can post a video or audio performance. Tell me more ...
Where can we find your performance? Tell me more ...
Your comment:
Please, log in to post your performance.