Artists by letter: A B C D E F G H I J K L M N O P Q R S T U V W X Y Z 0-9

 
Black Rat
Tabbed by Modnarandom

Tuning: Drop D

Please comment any corrections below

Verse

e|----------------------------------------------------------------|
B|----------------------------------------------------------------|
G|-----------------------------7-7--------7/----------------------|
D|----------------------------------------------------------------|
A|--5---7---3-------------5555-------5555-------------------------|
D|----------------------------------------------------------------|x4


Running through the streets to the black hole pubs
I'm a black rat with a crawlspace love
My body still hangs over every bar
Trapped inside my last ride home

Prechorus

e|---------------------------------------------------|
B|---------------------------------------------------|
G|-----------------8-8-------------------------------|
D|-------8-8-----------------8-8-------7-7-----------|
A|---------------------------------------------------|
D|---8-8-------8-8-------8-8-------8-8---------------|

Why leave it too long?

e|---------------------------------------------------|
B|----------------------------7-7--------------------|
G|-------5-5--------7-7-----------------7-7----------|
D|---------------------------------------------------|
A|---------------------------------------------------|
D|---5-5-------5-5-------5-5-------5-5---------------|

e|---------------------------------------------------|
B|---------------------------------------------------|
G|-----------------8-8-------------------------------|
D|-------8-8-----------------8-8-------7-7-----------|
A|---------------------------------------------------|
D|---8-8-------8-8-------8-8-------8-8---------------|

It could never go wrong

e|---------------------------------------------------------|
B|----------------------------7-7--------------------------|
G|-------5-5--------7-7-----------------10-10-10-10-12-9---|
D|---------------------------------------------------------|
A|---------------------------------------------------------|
D|---5-5-------5-5-------5-5-------5-5---------------------|


Chorus

e|--------------------------------------|
B|--------------------------------------|
G|--------------------------------------|
D|--------------------------------------|
A|--555-----666-------------------------|
D|------------------888-----888---------|x2

Time is best spent
Being wasted on
Laughter calling
Homesick for a haunted home

e|----------------------------------------|
B|----------------------------------------|
G|----------------------------------------|
D|-------------------------8b-----8b------|
A|--5-5-5-5-6-6---------------------------|
D|--------------10-10-8-88----8-88--------|x2

I've been, I've been here way too long
I've been, I've been here way too long


Verse

e|----------------------------------------------------------------|
B|----------------------------------------------------------------|
G|-----------------------------7-7--------7/----------------------|
D|----------------------------------------------------------------|
A|--5---7---3-------------5555-------5555-------------------------|
D|----------------------------------------------------------------|x4


Falling through the cracks of the city I love
Looking for someone a century ago
Hoped that it would be 'till death do us part
Ended up being dead from the start

Prechorus

e|---------------------------------------------------|
B|---------------------------------------------------|
G|-----------------8-8-------------------------------|
D|-------8-8-----------------8-8-------7-7-----------|
A|---------------------------------------------------|
D|---8-8-------8-8-------8-8-------8-8---------------|

Why leave it too long?

e|---------------------------------------------------|
B|----------------------------7-7--------------------|
G|-------5-5--------7-7-----------------7-7----------|
D|---------------------------------------------------|
A|---------------------------------------------------|
D|---5-5-------5-5-------5-5-------5-5---------------|

e|---------------------------------------------------|
B|---------------------------------------------------|
G|-----------------8-8-------------------------------|
D|-------8-8-----------------8-8-------7-7-----------|
A|---------------------------------------------------|
D|---8-8-------8-8-------8-8-------8-8---------------|

It could never go wrong

e|---------------------------------------------------------|
B|----------------------------7-7--------------------------|
G|-------5-5--------7-7-----------------10-10-10-10-12-9---|
D|---------------------------------------------------------|
A|---------------------------------------------------------|
D|---5-5-------5-5-------5-5-------5-5---------------------|


Chorus

e|--------------------------------------|
B|--------------------------------------|
G|--------------------------------------|
D|--------------------------------------|
A|--555-----666-------------------------|
D|------------------888-----888---------|x2

Time is best spent
Being wasted on
Laughter calling
Homesick for a haunted home

e|----------------------------------------|
B|----------------------------------------|
G|----------------------------------------|
D|-------------------------8b-----8b------|
A|--5-5-5-5-6-6---------------------------|
D|--------------10-10-8-88----8-88--------|x2

I've been, I've been here way too long
I've been, I've been here way too long


Bridge

e|-------------------------------------------------------------------|
B|-------------------------------------------------------------------|
G|--8-8-8-8-8-8-8-8-8-8-8-8-8-8-8-8-8-8-8-8-8-8-8-8-8-8-8-8-8-8-8-8--|
D|-------------------------------------------------------------------|
A|--6-6-6-6-6-6-6-6-6-6-6-6-6-6-6-6-6-6-6-6-6-6-6-6-6-6-6-6-6-6-6-6--|
D|-------------------------------------------------------------------| (acoustic)

e|-------------------------------------------------------------111111111010~---|
B|-----------------------------------------8b------10b------11b----------------|
G|--8-------8-------8-------------------8-------8-------8----------------------|
D|-----------------------------------------------------------------------------|
A|--6-------6-------6---------------2---6-------6-------6----------------------|
D|--------------------------2-2-5-5---5----------------------------------------|


Prechorus

e|---------------------------------------------------|
B|---------------------------------------------------|
G|-----------------8-8-------------------------------|
D|-------8-8-----------------8-8-------7-7-----------|
A|---------------------------------------------------|
D|---8-8-------8-8-------8-8-------8-8---------------|

Why leave it too long?

e|---------------------------------------------------|
B|----------------------------7-7--------------------|
G|-------5-5--------7-7-----------------7-7----------|
D|---------------------------------------------------|
A|---------------------------------------------------|
D|---5-5-------5-5-------5-5-------5-5---------------|

e|---------------------------------------------------|
B|---------------------------------------------------|
G|-----------------8-8-------------------------------|
D|-------8-8-----------------8-8-------7-7-----------|
A|---------------------------------------------------|
D|---8-8-------8-8-------8-8-------8-8---------------|

It could never go wrong

e|---------------------------------------------------------|
B|----------------------------7-7--------------------------|
G|-------5-5--------7-7-----------------10-10-10-10-12-9---|
D|---------------------------------------------------------|
A|---------------------------------------------------------|
D|---5-5-------5-5-------5-5-------5-5---------------------|

Chorus

e|--------------------------------------|
B|--------------------------------------|
G|--------------------------------------|
D|--------------------------------------|
A|--555-----666-------------------------|
D|------------------888-----888---------|x2

Time is best spent
Being wasted on
Laughter calling
Homesick for a haunted home

e|----------------------------------------|
B|----------------------------------------|
G|----------------------------------------|
D|-------------------------8b-----8b------|
A|--5-5-5-5-6-6---------------------------|
D|--------------10-10-8-88----8-88--------|x2

I've been, I've been here way too long
I've been, I've been here way too long


Outro

e|----------------------------------------------------------------|
B|----------------------------------------------------------------|
G|-----------------------------7-7--------7/----------------------|
D|----------------------------------------------------------------|
A|--5---7---3h------------5555-------5555---------5---7---3-------|
D|----------------------------------------------------------------|


I'm a black rat with a crawlspace love
Yeah

************************************

| /   slide up
| \   slide down
| h   hammer-on
| p   pull-off
| ~   let ring
| +   harmonic
| x   Mute note
| b   Bend
| pb  Pre-bend
| br  Bend release
| pbr Pre-bend release
| brb Bend release bend

************************************
 
 
Dz Deathrays - Black Rat :: indexed at Ultimate Guitar.
Black Rat tabs @ 911Tabs
People who played Dz Deathrays - Black Rat also played these songs by Dz Deathrays:
No Sleep Tab, Gina Works At Hearts Tab, Northern Lights Tab, Gebbie Street Tab, Gina Works At Hearts Tab, Fixations Tab

Quick tip, so you can enjoy Black Rat even more:

You might want to transpose the song if it is too high or too low for you to sing. Just click the desired option while playing a song and all the chords will automatically be transponded into a new key.

Show us your talent, perform Black Rat!

Here you can post a video or audio performance. Tell me more ...
Where can we find your performance? Tell me more ...
Your comment:
Please, log in to post your performance.