Artists by letter: A B C D E F G H I J K L M N O P Q R S T U V W X Y Z 0-9
 
Historias De Amor Y Condon Tab
Intro 1:

1 |---2---2---0--0--0--0--|
2 |---3---3---5--5--5--5--|
3 |---4---4---4--6--7--6--|
4 |---4---4---5--5--5--5--|
5 |---2---2---------------|
6 |-----------------------|


Intro 2: (X 4 Veces)

1 |-------------------------|
2 |-------------------------|
3 |---4--2--4--4--2--4--7---|
4 |---4--2--4--4--2--4--7---|
5 |---2--0--2--2--0--2--5---|
6 |-------------------------|


Intro 3: (Cuando agan la primera nota de este secci0n, 
          o sea, donde aparecen los tres 7,no deben 
          desarmarla para ejecutar el resto, debe durar
          hasta donde terminan los * ).

      *  *   *  *  *  *  *
1 |------------------------------------------------2----|
2 |---7--7--10--7----------------------------------3----|
3 |---7------------9--7-----6--4s6--9--------------4----|
4 |---7------------------9--7----------9b11r9--7---4----|
5 |-------------------------7----------------------2----|
6 |-----------------------------------------------------|


       Si5
   Historias de amor y condon
      
       La5  
   Escritas con fuego en la piel

      Sol5 
   Miles de inventos

     La5
   Se llevo el tiempo
   
     Si5
   Dificil volver a querer.


      Si5
   Denuevo la misma emoci0n

      La5   
   Mis ganas no puedo esconder

     Sol5
   LLega el momento

      La5    
   De nuestro encuentro


1 |-----------------------------------------------------------|
2 |-----------------------------------------------------------|
3 |-----------------------7-------------7-----------7--7------|
4 |---7--9v--7--9v--7--9-----9v---7--9-----9--7-----------9v--|
5 |----------------------------------------------9------------|
6 |-----------------------------------------------------------|


1  ---------------------------|
2  ---------------------------|
3  ---7--9b11r9--7--9--7------|
4  -----------------------9---|
5  ---------------------------|
6  ---------------------------|



 
Intro 3:

      *  *   *  *  *  *  *
1 |------------------------------------------------2----|
2 |---7--7--10--7----------------------------------3----|
3 |---7------------9--7-----6--4s6--9--------------4----|
4 |---7------------------9--7----------9b11r9--7---4----|
5 |-------------------------7----------------------2----|
6 |-----------------------------------------------------|



1 -----------------------------------------------|
2 -----------------------------------------------|
3 ------------7--7-------7--9v11r9--7--9--7------|
4 ---9--7-----------9v-----------------------9---|
5 ---------9-------------------------------------|
6 -----------------------------------------------|



Intro 3:

      *  *   *  *  *  *  *
1 |------------------------------------------------2----|
2 |---7--7--10--7----------------------------------3----|
3 |---7------------9--7-----6--4s6--9--------------4----|
4 |---7------------------9--7----------9b11r9--7---4----|
5 |-------------------------7----------------------2----|
6 |-----------------------------------------------------|



     
  (La siguiente estofa es igual a las anteriores, 
   Se repite exactamente lo mismo)



Solo 1:

1 |-------------------------------------------------------------------------|
2 |-------------------------------------------------------------------------|
3 |---------------------------------7-----7v------------------------7----7v-|
4 |-------7------------7v-----7--9-----9------------7--7v-----7--9----9-----|
5 |--5s7-----7v--7--9------9-------------------7s9---------9----------------|
6 |-------------------------------------------------------------------------|


1 |---------------------------------------------------------------------|
2 |--------7----------------------------7-------------------------------|
3 |-----------7-----7--9b11r9--7----------7-----7--9b11--7--9--7--------|     
4 |---7s9--------9----------------7s9--------9--------------------7s9---|
5 |---------------------------------------------------------------------|
6 |---------------------------------------------------------------------|


1 |------------------------------------------------------------------------|
2 |-----------------------------------------------------5--5s7--5--7--7s8--|
3 |-----------------------------------------4--7--4--7---------------------|
4 |---7--7--5--7--5-------------5-----5--7---------------------------------|
5 |------------------5s7--5--7-----7---------------------------------------|
6 |------------------------------------------------------------------------|



1 |--------------------------------------12--------------|
2 |---7--8--8s10--8--10--12--15--14--15-----15--14--15---|
3 |------------------------------------------------------|
4 |------------------------------------------------------|
5 |------------------------------------------------------|
6 |------------------------------------------------------|


1 |---12--14--12--14--15--17--17b19---|
2 |-----------------------------------|
3 |-----------------------------------|
4 |-----------------------------------|
5 |-----------------------------------|
6 |-----------------------------------|



Solo 2:


1 |------------------------------------------------------------------|
2 |---12--10--9--10--9------9----------------------------------------|
3 |---------------------11-----11--9--11--9------9-------------------|
4 |------------------------------------------12-----12--11--12--11---|
5 |------------------------------------------------------------------|
6 |------------------------------------------------------------------|


1 |------------------------------------------------------------------------|
2 |------------------------------------------------------------------------|
3 |----------------------------------9b11--7--9b11--7--9b11--7--9b11r9--7v-|
4 |--9--11--9------9-------------9-----------------------------------------|
5 |------------12-----12--9--12--------------------------------------------|
6 |------------------------------------------------------------------------|


1 |-------------------------7-------------7--7--7---|
2 |---------7--9--7--9--10-----10--9--10------------|
3 |---7--9------------------------------------------|
4 |-------------------------------------------------|
5 |-------------------------------------------------|
6 |-------------------------------------------------|


1 |---12--10--9--10--9------9---------------------------------------|
2 |---------------------12-----12--10--12--10--9--10--9------9--9---|
3 |------------------------------------------------------11---------|
4 |-----------------------------------------------------------------|
5 |-----------------------------------------------------------------|
6 |-----------------------------------------------------------------|


1 |-------------------------------------------------------------|
2 |---0--7--9--0--7--9--0--7--9--0--2--3--0--2--3--0--7--9--0---|
3 |-------------------------------------------------------------|
4 |-------------------------------------------------------------|
5 |-------------------------------------------------------------|
6 |-------------------------------------------------------------|


1 |-------------------------------------------------------------|
2 |---2--3--0--3--5--0--5--7--0--7--9--0--9--10--0--10--12--0---|
3 |-------------------------------------------------------------|
4 |-------------------------------------------------------------|
5 |-------------------------------------------------------------|
6 |-------------------------------------------------------------|


1 |---------------------------|
2 |---17--19b21--19b21--------|
3 |---------------------17v---|
4 |---------------------------|
5 |---------------------------|
6 |---------------------------|



Final:



Riff 1 (X 2 veces)

1 |---------------------------------------------|
2 |---------------------------------------------|
3 |---------------------------------------------|
4 |---------------------------------------------|
5 |---------------------------------------------|
6 |---0--3--0--3b4r3--0--3--0--3b4r3--0--3--0---|


1 |-----------------------------------------------|
2 |-----------------------------------------------|
3 |-----------------------------------------------|
4 |-----------------------------------------------|
5 |-----------------------------------------------|
6 |---0--3--0--3b4r3--0--3--0--3--5--6--5--3--0---|



Riff 2 (X 1 Veces)

1 |------------------------------------------------|
2 |------------------------------------------------|
3 |------------------------------------------------|
4 |---------2-----4b5r4-----2-----4b5r4-----2------|
5 |---4--4-----4---------4-----4---------4-----4---|
6 |------------------------------------------------|


1 |-----------------------------------------------|
2 |-----------------------------------------------|
3 |-----------------------------------------------|
4 |------2--------4b5r4-----2-----2--4--5--4--2---|
5 |---4-----4--4---------4-----4------------------|
6 |-----------------------------------------------|



               Riff 1: (X 1 veces)



     Do5       La5            
   Seeeen sacioooonnnn


     
               Riif 1: (X 2 veces)



Este Riff es X 2 veces)

1 |-------------------------------------------------------------|
2 |-------------------------------------------------------------|
2 |-------------------------------------------------------------|
4 |-------------------------------------------------------------|
5 |-------------------------------------------------------------|
6 |---0--0--6--5--3--0--0--6--5--3--0--0--3--0--0--6--5--3--0---|


1 |-------------------------------|
2 |-------------------------------|
3 |-------------------------------|
4 |-------------------------------|
5 |-------------------------------|
6 |---0--3--0--3--5--6--5--3--0---|









Cualquier duda o sugerencia escribanme a maxi_nekro@hotmail.com

Tablature player for this song:
 
 
Chancho En Piedra - Historias De Amor Y Condon Tab :: indexed at Ultimate Guitar.
Historias De Amor Y Condon tabs @ 911Tabs
People who played Chancho En Piedra - Historias De Amor Y Condon Tab also played these songs by Chancho En Piedra:
La Claridad A Nuestro Sol Tab, Volantin Tab, Eligiendo Una Reina Tab, Discojapi Tab, Locura Espacial Tab

Quick tip, so you can enjoy Historias De Amor Y Condon Tab even more:

After the registration (which takes just 10 seconds, remember?) you will be able to use your profile - your very own piece of YourChords.com.

Show us your talent, perform Historias De Amor Y Condon Tab!

Here you can post a video or audio performance. Tell me more ...
Where can we find your performance? Tell me more ...
Your comment:
Please, log in to post your performance.