Artists by letter: A B C D E F G H I J K L M N O P Q R S T U V W X Y Z 0-9
 
What I Want Tab
-------------------------------------------------------------------------------
			     What I Want - Daughtry
-------------------------------------------------------------------------------
Tabbed by: kevmania69
Email: kevmania69@yahoo.com

Tuning: C#-G#-C#-F#-A#-D#

D#|-----------------------------------|
A#|-----------------------------------|  This comes in after the drums
F#|-----------------------------------|
C#|--5-7-0-5-7-0-3-3-3-3-5-5-5-5-0---|
G#|--5-7-0-5-7-0-3-3-3-3-5-5-5-5--0---|
C#|--5-7-0-5-7-0-3-3-3-3-5-5-5-5--0---|

|---------------------------------------------|
|---------------------------------------------| Little main lick that is played
|-----------109------------------------------| throughout the song.
|--12-10-12------12-10-12----10-12---10-12----| Play it twice here.
|-------------------------12------------------|
|---------------------------------------------|

|-----------------------------------------------------------|  VERSES
|-----------------------------------------------------------|
|-----------------------------------------------------------|
|-0-0-0-0-0-0-0-0-5-7-0-5-7-0-3--3-3-3-3-3-3-3--5-5-5-5-0---|
|-0-0-0-0-0-0-0-0-5-7-0-5-7-0-3--3-3-3-3-3-3-3--5-5-5-5-0---|
|-0-0-0-0-0-0-0-0-5-7-0-5-7-0-3--3-3-3-3-3-3-3--5-5-5-5-0---|

There are various licks played throughout the verses - basically just Slash winging it. 
can imitate it effortlessly.

|--------------------------------------|
|--------------------------------------|   CHORUS
|-7-7-7-7-5-5-5-5----------------------|   Play twice first time
|-7-7-7-7-5-5-5-5-5-5-5-5-5-5-5-3-0----|   Followed by main lick
|-5-5-5-5-3-3-3-3-5-5-5-5-5-5-5-3-0----|
|-----------------5-5-5-5-5-5-5-3-0----|

|--------------------------------------------------------------------|
|--------------------------------------------------------------------| Bridge before solo
|--5-5-5-5-5-5-5-5-----------------3-3-3-3-3-3-3-3-2-2-2-2-2-2-2-2---|
|--5-5-5-5-5-5-5-5-5-5-5-5-5-5-5-5-3-3-3-3-3-3-3-3-2-2-2-2-2-2-2-2---|
|--3-3-3-3-3-3-3-3-5-5-5-5-5-5-5-5-1-1-1-1-1-1-1-1-0-0-0-0-0-0-0-0---|
|------------------5-5-5-5-5-5-5-5-----------------------------------|

SOLO (I know it, but will tab it later. Easy very basic solo.)

CHORUS

MAIN LICK

END

Nothing difficult to this song. If you really need the solo email me.

| /  slide up
|   slide down
| h  hammer-on
| p  pull-off
| ~  vibrato
| +  harmonic
| x  Mute note
============================================================

Tablature player for this song:
 
 
Daughtry - What I Want Tab :: indexed at Ultimate Guitar.
What I Want tabs @ 911Tabs

About the artist behind What I Want Tab:

Daughtry (IPA: /ˈdoʊtriː/[4]) is an American Music Award-winning and Grammy-nominated rock band from North Carolina, formed by former American Idol finalist Chris Daughtry in 2006. Their self-titled debut album was released on November 21, 2006. The disc reached #1 for two non-consecutive weeks on the Billboard 200, outsold Idol winner Taylor Hicks' debut effort, sold more than 4 million copies and was named the number one selling album of 2007 by Billboard. Their album is also the fastest-selling debut rock album in Soundscan history.[5] The first single from the album, "It's Not Over", was the eighth most played song across all formats on U.S. radio in 2007, and their second single from the album, "Home", was the tenth most played song in the U.S. of 2007.[6]

Indexed at Wikipedia.

Show us your talent, perform What I Want Tab!

Here you can post a video or audio performance. Tell me more ...
Where can we find your performance? Tell me more ...
Your comment:
Please, log in to post your performance.