Artists by letter: A B C D E F G H I J K L M N O P Q R S T U V W X Y Z 0-9

 
Bleach
[Part 1]
e|------2--------2--------2--------2---------2--------2--------1--------2----|
B|---------------------------------------------------------------------------|
G|-----3--------3--------3--------3---------3--------3--------3--------3-----|
D|-1--------1----------------------------------------------------------------|
A|--------------------------------------2--------2--------1--------1---------| x10
E|-------------------4--------4----------------------------------------------|

[Part 2]
(from around 1:22)

e|------2--------2--------2--------2---------4--------4--------1--------1----|
B|---------------------------------------------------------------------------|
G|-----3--------3--------3--------3---------3--------3--------3--------3-----|
D|-1--------1----------------------------------------------------------------|
A|--------------------------------------2--------2--------1--------1---------| x3
E|-------------------4--------4----------------------------------------------|

repeat twice. After 5 times a 2nd guitar comes in (3:10)

e|-2----1----2----1----2----2/6--2---1---------------------------------------|
B|---4----4----4----4----4---------------------------------------------------|
G|---------------------------------------------------------------------------|
D|---------------------------------------------------------------------------|
A|---------------------------------------------------------------------------| x8
E|---------------------------------------------------------------------------|

 
************************************

| /  Slide up

************************************
 
 
Anatu - Bleach :: indexed at Ultimate Guitar.
Bleach tabs @ 911Tabs
People who played Anatu - Bleach also played these songs by Anatu:
Bleach Tab

Quick tip, so you can enjoy Bleach even more:

You might want to transpose the song if it is too high or too low for you to sing. Just click the desired option while playing a song and all the chords will automatically be transponded into a new key.

Show us your talent, perform Bleach!

Here you can post a video or audio performance. Tell me more ...
Where can we find your performance? Tell me more ...
Your comment:
Please, log in to post your performance.