Artists by letter: A B C D E F G H I J K L M N O P Q R S T U V W X Y Z 0-9

 
Susundan Tab
Tropzz..its me prince 2..inayos q lng una q tab..
I hope u like it..s friendster q n lng p0 ung mga comments nyo..princelother@yahoo.com.ph

intro
Gtr 1
isa-isa lng po 
C#m-B-A-B

continued
e|--4-4-4-4---------|---|
B|--5-5-5-5---------|---|
G|--6-6-6-6---------|---|2X
D|--6-6-6-6---------|---|
A|--4-4-4-4---------|---|
E|------------------|---|

continued
Gtr 2
e|--12-12-12--11-11---------|--12-12-12--11-11-----9---|
B|-------------------12-----|-------------------12-----|
G|--------------------------|--------------------------|
D|--------------------------|--------------------------|
A|--------------------------|--------------------------|
E|--------------------------|--------------------------|

e|--12-12-12--11-11---------|--12-12-12--11-11-----9---|
B|-------------------12-----|-------------------12-----|
G|--------------------------|--------------------------|
D|--------------------------|--------------------------|
A|--------------------------|--------------------------|
E|--------------------------|--------------------------|

e|--12-12-12--11-11---------|--12-12-12--11-11-----9---|
B|-------------------12-----|-------------------12-----|
G|--------------------------|--------------------------|
D|--------------------------|--------------------------|
A|--------------------------|--------------------------|
E|--------------------------|--------------------------|

verse 1

Gtr 1

C#m-E(try nyo if ok yung C#m-B)

Gtr 2
tempo lng need d2 ibend nyo lng po ng kaunti
keep on playing until bago ung last part ng lines s verse 1
e|--4-4-4-4---------|-4-4-4-4---------|
B|--5-5-5-5---------|-5-5-5-5----9b---|
G|--6-6-6-6----9b---|-6-6-6-6----9b---|
D|--6-6-6-6----9b---|-6-6-6-6---------|
A|--4-4-4-4---------|-4-4-4-4---------|
E|------------------|-----------------|

Gtr 3  (base)gamitin nyo p0 ung mga rollings s                          minor pentatonic scale lng p0 un pwde n..
itab q n lng nxt time..=)

C#m-E
(somewhat similar kc ung tunog ng E and C#m mga dudes)
Naghahanap ng kasugatan
Sa tanong na di ko maintidhan
Meron pa bang patutuguhan
Ako'y nandito at ika'y nawawala

A-B
Nahuhulog na ang luha

C#m-B-A-B
Susundankahit san man
Magpunta
Di ka mawawala
Sa puso kong iyong-iyo
lamang
Di kita malilimutan

Gtr 2
e|--12-12-12--11-11---------|--12-12-12--11-11-----9---|
B|-------------------12-----|-------------------12-----|
G|--------------------------|--------------------------|
D|--------------------------|--------------------------|
A|--------------------------|--------------------------|
E|--------------------------|--------------------------|

e|--12-12-12--11-11---------|--12-12-12--11-11-----9---|
B|-------------------12-----|-------------------12-----|
G|--------------------------|--------------------------|
D|--------------------------|--------------------------|
A|--------------------------|--------------------------|
E|--------------------------|--------------------------|

e|--12-12-12--11-11---------|--12-12-12--11-11-----9---|
B|-------------------12-----|-------------------12-----|
G|--------------------------|--------------------------|
D|--------------------------|--------------------------|
A|--------------------------|--------------------------|
E|--------------------------|--------------------------|


Verse 2:
C#m-E
Lumisan ka ng walang
paalam
Dina alam kungsanka pa mahahanap
Paano pantin mahahawakan?
Mga pangarap na ating iningatan

A-B
Nahuhulog na ang luha

C#m-B-A-B
Susundan kahit san man
Magpunta
Di ka mawawala
Sa puso kong iyong-iyo
lamang
Di kita malilimutan

adlib..not xure on this part p0h..
Gtr 1

C#m-E-C#m-B

Gtr 2
(bhala n koy ilan beses nyo ulitin tamad n q magbilang..hehehe
e|--4-4-4-4---------|-4-4-4-4---------|
B|--5-5-5-5---------|-5-5-5-5----9b---|
G|--6-6-6-6----9b---|-6-6-6-6----9b---|
D|--6-6-6-6----9b---|-6-6-6-6---------|
A|--4-4-4-4---------|-4-4-4-4---------|
E|------------------|-----------------|

chorus

C#m-B-A-B
Susundan kahit san man
Magpunta
Di ka mawawala
Sa puso kong iyong-iyo
lamang
Di kita malilimutan

ayusin q to ulit..hehe..la n q pera png net..








 
 
Callalily - Susundan Tab :: indexed at Ultimate Guitar.
Susundan tabs @ 911Tabs

About the artist behind Susundan Tab:

Callalily is a Filipino pop-rock band, composed of Kean Cipriano (Vocals), Alden Acosta (Lead Guitar), Tatsi Jamnague (Rhythm Guitar), Aaron Ricafrente (Bass) and Lemuel Belaro (Drums).

Indexed at Wikipedia.

Show us your talent, perform Susundan Tab!

Here you can post a video or audio performance. Tell me more ...
Where can we find your performance? Tell me more ...
Your comment:
Please, log in to post your performance.