Artists by letter: A B C D E F G H I J K L M N O P Q R S T U V W X Y Z 0-9

 
Shine Tab
Title: Shine
Artist: Callalily
Album: Fisheye
Tabbed by: Mark Jesson Galera (San Juan La Union)

For any comments and Suggestion:

Text Me: 09198408399
Friendster: boybassista@yahoo.com

        This is the new song of Callalily from their new album      
                              "Fisheye"..
                Kung may mali man,..pakicomment kaagad..tnx!


Intro 1: Guitar 1:

e-77-----77----77----77----77-------|
b----55~---55~---55~---55~-----55~--|
g-----------------------------------|
D-----------------------------------|
A-----------------------------------|
E-----------------------------------|

then

e--77--55--44-------77--55--44------77-55--44-------77--55--44----|
b--------------55---------------55------------55~-------------55~-|
g-----------------------------------------------------------------|
D-----------------------------------------------------------------|
A-----------------------------------------------------------------|
E-----------------------------------------------------------------|

 Guitar 2:                                  Guitar 1:
e-----------------------|           |-------------------|
b-----------------------|           |-------------------|  
g------111------0~------|           |-----1~-----0~-----| 
D---333--------2~-------|           |----3~-----2~------| 
A-333-------------------|           |---3---------------|
E-----------------------|           |-------------------|

Verse 1:
Years have passed oh.                      Guitar 1:
e-----------------------|           |-------------------|
b-----------------------|           |-------------------|  
g------111------0~------|           |-----1~-----0~-----| 
D---333--------2~-------|           |----3~-----2~------| 
A-333-------------------|           |---3---------------|
E-----------------------|           |-------------------|

I'm sure we had a blast                     Guitar 1:
e-----------------------|           |-------------------|
b-----------------------|           |-------------------|  
g------111------0~------|           |-----1~-----0~-----| 
D---333--------2~-------|           |----3~-----2~------| 
A-333-------------------|           |---3---------------|
E-----------------------|           |-------------------|
 
We've been through bridges                  Guitar 1:
e-----------------------|           |-------------------|
b-----------------------|           |-------------------|  
g------111------0~------|           |-----1~-----0~-----| 
D---333--------2~-------|           |----3~-----2~------| 
A-333-------------------|           |---3---------------|
E-----------------------|           |-------------------|

We survived, we survived it all.             Guitar 1:
e-----------------------|           |-------------------|
b-----------------------|           |-------------------|  
g------111------0~------|           |-----1~-----0~-----| 
D---333--------2~-------|           |----3~-----2~------| 
A-333-------------------|           |---3---------------|
E-----------------------|           |-------------------|

I know you're innocent.                     Guitar 1:
e-----------------------|           |-------------------|
b-----------------------|           |-------------------|  
g------111------0~------|           |-----1~-----0~-----| 
D---333--------2~-------|           |----3~-----2~------| 
A-333-------------------|           |---3---------------|
E-----------------------|           |-------------------|

Things happened in a mile                   Guitar 1:
e-----------------------|           |-------------------|
b-----------------------|           |-------------------|  
g------111------0~------|           |-----1~-----0~-----| 
D---333--------2~-------|           |----3~-----2~------| 
A-333-------------------|           |---3---------------|
E-----------------------|           |-------------------|

But I'm sure behind..                     Guitar 1:
e-----------------------|           |-------------------|
b-----------------------|           |-------------------|  
g------111------0~------|           |-----1~-----0~-----| 
D---333--------2~-------|           |----3~-----2~------| 
A-333-------------------|           |---3---------------|
E-----------------------|           |-------------------|

Chorus:

Don't ask me how
e-------------222---------|
b-----------444-----------|
g--------444--------00----|
D------444--------222-----|
A----222------------------|
E-------------------------|

e-------------222---------------|
b-----------444-----------------|
g--------444--------00-----111--|
D------444--------222----333----|
A----222----------------333-----|
E-------------------------------|

Intro:

Guitar 1:
e--77--55--44-------77--55--44------77-55--44-------77--55--44----|
b--------------55---------------55------------55~-------------55~-|
g-----------------------------------------------------------------|
D-----------------------------------------------------------------|
A-----------------------------------------------------------------|
E-----------------------------------------------------------------|
Guitar 2:                                   Guitar 1:
e-----------------------|           |-------------------|
b-----------------------|           |-------------------|  
g------111------0~------|           |-----1~-----0~-----| 
D---333--------2~-------|           |----3~-----2~------| 
A-333-------------------|           |---3---------------|
E-----------------------|           |-------------------|

Verse 2:

You've been with my brothers.             Guitar 1:
e-----------------------|           |-------------------|
b-----------------------|           |-------------------|  
g------111------0~------|           |-----1~-----0~-----| 
D---333--------2~-------|           |----3~-----2~------| 
A-333-------------------|           |---3---------------|
E-----------------------|           |-------------------|

You cry, I cry you die I die               Guitar 1:
e-----------------------|           |-------------------|
b-----------------------|           |-------------------|  
g------111------0~------|           |-----1~-----0~-----| 
D---333--------2~-------|           |----3~-----2~------| 
A-333-------------------|           |---3---------------|
E-----------------------|           |-------------------|

Chorus:

Don't ask me how
e-------------222---------|
b-----------444-----------|
g--------444--------00----|
D------444--------222-----|
A----222------------------|
E-------------------------|

e-------------222---------|
b-----------444-----------|
g--------444--------00----|
D------444--------222-----|
A----222------------------|
E-------------------------|


Will shine 

Lyrics:

Years have passed oh.
I'm sure we had a blast
We've been through bridges
We've been through walls.
We survived, we survived it all.
I know you're innocent.
We all know it was an accident.
Things happened in a mile
But I'm sure behind those pillows hide our little smiles.
Don't ask me how,
Don't ask me why
Just sit beside the tree below that pretty sky
Don't ask me how
Don't ask me why
As long as we've alive, we'll share
You've been with my brothers.
Everywhere I go
We'll swim the rivers that'll  I never stop to flow
You cry, I cry you die I die 



 
 
Callalily - Shine Tab :: indexed at Ultimate Guitar.
Shine tabs @ 911Tabs

About the artist behind Shine Tab:

Callalily is a Filipino pop-rock band, composed of Kean Cipriano (Vocals), Alden Acosta (Lead Guitar), Tatsi Jamnague (Rhythm Guitar), Aaron Ricafrente (Bass) and Lemuel Belaro (Drums).

Indexed at Wikipedia.

Show us your talent, perform Shine Tab!

Here you can post a video or audio performance. Tell me more ...
Where can we find your performance? Tell me more ...
Your comment:
Please, log in to post your performance.