Artists by letter: A B C D E F G H I J K L M N O P Q R S T U V W X Y Z 0-9

 
Pasan Tab
Pasan by Callalily

Song Name: PASAN
Band Name: CALLALILY
Tabbed by: -madhater-

YEAH! hello pipol...

Here is Pasan with the notes on how to play it... If you have any
corrections on my tab... feel free to mail or to text me... 

Please Rate my Tab... :)

hi sa mahal na mahal kong si Hosea Olga Baltazar...

:) mahal na mahal po kita!


LET'S START OFF!


Guitar 1 (Rhythm) - e B G D A E (distortion)

Guitar 2 (Lead)   - e B G D A E (distortion)

Guitar 3 (Lead)   - e B G D A E (distortion; for fill-ins; recorded guitar)


Q = ? bpm; 4/4


[INTRO]:

Guitar 1:
      Em             D              C            (C)
      W              W              W             W
e:|--------------|-------------|--------------|--------------|
B:|--------------|-------------|--------------|--------------|
G:|-/-9~~--------|--7~~-------|---5~~-------|--(5)~~-------|
D:|-/-9~~--------|--7~~-------|---5~~-------|--(5)~~-------|
A:|-/-7~~--------|--5~~-------|---3~~-------|--(3)~~-------|
E:|--------------|-------------|--------------|--------------|
      Em             D              C            (C)
      W              W              W             W
e:|--------------|-------------|--------------|--------------|
B:|--------------|-------------|--------------|--------------|
G:|-/-9~~--------|--7~~-------|---5~~-------|--(5)~~-------|
D:|-/-9~~--------|--7~~-------|---5~~-------|--(5)~~-------|
A:|-/-7~~--------|--5~~-------|---3~~-------|--(3)~~-------|
E:|--------------|-------------|--------------|--------------|


Guitar 1:
     Q    e    Q e  Q          Q   e    Q e  Q
e:|-----------------------|------------------------|
B:|-----------------------|------------------------|
G:|--12-------12---12-----|---12-------12---12-----|
D:|---x--------x----x-----|----x--------x----x-----|
A:|--10-------10---10-----|---10-------10---10-----|
E:|-----------------------|------------------------|

Guitar 2:
     Q    e    Q e  Q          Q   e    Q e  Q
e:|-----------------------|------------------------|
B:|-----------------------|------------------------|
G:|--4-----/--5--/-7------|---4-----/--5--/-7------|
D:|--x--------x----x------|---x--------x----x------|
A:|--2-----/--3--/-5------|---2-----/--3--/-5------|
E:|-----------------------|------------------------|


[INTRO 2]:

Guitar 1:

     Em                  D
     E E E E E E E E     E E E E E E E E
e:|-------------------|-------------------|
B:|-------------------|-------------------|
G:|--9-9-9-9-9-9-9-9--|--7-7-7-7-7-7-7-7--|
D:|--9-9-9-9-9-9-9-9--|--7-7-7-7-7-7-7-7--|
A:|--7-7-7-7-7-7-7-7--|--5-5-5-5-5-5-5-5--|
E:|-------------------|-------------------|

(cont'd)
     C                  (C)
     E E E E E E E E     E E E E E E E E
e:|-------------------|-------------------|
B:|-------------------|-------------------|
G:|--5-5-5-5-5-5-5-5--|--5-5-5-5-5-5-5-5--|
D:|--5-5-5-5-5-5-5-5--|--5-5-5-5-5-5-5-5--|
A:|--3-3-3-3-3-3-3-3--|--3-3-3-3-3-3-3-3--|
E:|-------------------|-------------------|

Guitar 2:

     Q e  Q e Q       Q e Q e Q        Q  e Q e Q     W
e:|-----------10--|--------------|-----------------|-----------|
B:|--7----8-------|---8---7------|--10s12---10--8==|=(8)~~-----|
G:|---------------|-----------7--|-----------------|-----------|
D:|---------------|--------------|-----------------|-----------|
A:|---------------|--------------|-----------------|-----------|
E:|---------------|--------------|-----------------|-----------|

Guitar 3:

     E E E E E E E E     E E E E E E E E
e:|-------------------|-------------------|
B:|-------------------|-------------------|
G:|--4-4-4-5-5-5-7-7--|--4-4-4-5-5-5-7-7--|
D:|--x-x-x-x-x-x-x-x--|--x-x-x-x-x-x-x-x--|
A:|--2-2-2-3-3-3-5-5--|--2-2-2-3-3-3-5-5--|
E:|-------------------|-------------------|
(cont'd)
       E  E  E  E  E  E  E  E      E  E  E  E  E  E  E  E  
e:|----------------------------|---------------------------|
B:|----------------------------|---------------------------|
G:|-/-12-12-12-12-12-12-12-12--|--12-12-12-12-12-12-12-12--|
D:|----x--x--x--x--x--x--x--x--|---x--x--x--x--x--x--x--x--|
A:|-/-10-10-10-10-10-10-10-10--|--10-10-10-10-10-10-10-10--|
E:|----------------------------|---------------------------|



[VERSE 2]:

Guitar 1: (the high G note here can be heard clearly...)

      Em             D              C            (C)
      W              W              W             W
e:|--------------|-------------|---(3)~-------|--(3)~~-------|
B:|-/-8~~--------|--8~~-------|--------------|--------------|
G:|-/-9~~--------|--7~~-------|---5~~-------|--(5)~~-------|
D:|-/-9~~--------|--7~~-------|---5~~-------|--(5)~~-------|
A:|-/-7~~--------|--5~~-------|---3~~-------|--(3)~~-------|
E:|--------------|-------------|--------------|--------------|
(do this twice)


[REFRAIN]: (do this twice)

Guitar 1: 
     G                   D
     E E E E E E E E     E E E E E E E E
e:|-------------------|-------------------|
B:|-------------------|-------------------|
G:|-------------------|------7-----7---7--|
D:|------5-----5---5--|--7-7-7-7-7-7-7-7--|
A:|--5-5-5-5-5-5-5-5--|--5-5-5-5-5-5-5-5--|
E:|--3-3-3-3-3-3-3-5--|-------------------|
PM   . .   . .   .       . .   . .   .

(cont'd)
     C
     E E E E E E E E     E E E E E E E E
e:|-------------------|-------------------|
B:|-------------------|-------------------|
G:|------5-----5---5--|------5-----5---5--|
D:|--5-5-5-5-5-5-5-5--|--5-5-5-5-5-5-5-5--|
A:|--3-3-3-3-3-3-3-3--|--3-3-3-3-3-3-3-3--|
E:|-------------------|-------------------|
PM  . .   . .   .       . .   . .   .


[PRECHORUS]:

Guitar 1 & 2:

    Bm                        C
    E E  E  E E  E  Q         E E E E  Q
e|-------------------------|---------------|
B|-------------------------|---------------|
G|--4-4-----4-4-----4---/--|--5-5-5-5--5~--|
D|--4-4--x--4-4--x--4---/--|--5-5-5-5--5~--|
A|--2-2--x--2-2--x--2---/--|--3-3-3-3--3~--|
E|-------------------------|---------------|

(cont'd)
     Bm                        C
     E E  E  E E  E  Q         E E E E  Q
e:|-------------------------|---------------|
B:|-------------------------|---------------|
G:|--4-4-----4-4-----4---/--|--5-5-5-5--5~--|
D:|--4-4--x--4-4--x--4---/--|--5-5-5-5--5~--|
A:|--2-2--x--2-2--x--2---/--|--3-3-3-3--3~--|
E:|-------------------------|---------------|

(cont'd)
     Bm                        C
     E E  E  E E  E  Q         E E E E E E E E
e:|-------------------------|-------------------|
B:|-------------------------|-------------------|
G:|--4-4-----4-4-----4---/--|--5-5-5-5-5-5-5-5--|
D:|--4-4--x--4-4--x--4---/--|--5-5-5-5-5-5-5-5--|
A:|--2-2--x--2-2--x--2---/--|--3-3-3-3-3-3-3-3--|
E:|-------------------------|-------------------|

(cont'd)
       D
       E E E E E E E E E E E E E E E E
e:|-------------------------------------|
B:|-------------------------------------|
G:|--/-7-7-7-7-7-7-7-7-7-7-7-7-7-7-7-7--|
D;|--/-7-7-7-7-7-7-7-7-7-7-7-7-7-7-7-7--|
A;|--/-5-5-5-5-5-5-5-5-5-5-5-5-5-5-5-5--|
E;|-------------------------------------|


[CHORUS]:

Guitar 1:
    G                   D
    E E E E E E E E     E E E E E E E E
e|-------------------|-------------------|
B|-------------------|-------------------|
G|-------------------|--7-7-7-7-7-7-7-7--|
D|--5-5-5-5-5-5-5-5--|--7-7-7-7-7-7-7-7--|
A|--5-5-5-5-5-5-5-5--|--5-5-5-5-5-5-5-5--|
E|--3-3-3-3-3-3-3-3--|-------------------|
    C                  (C)      D
    E E E E E E E E     E E E E E E E E
e|-------------------|-------------------|
B|-------------------|-------------------|
G|--5-5-5-5-5-5-5-5--|--5-5-5-5-7-7-7-7--|
D|--5-5-5-5-5-5-5-5--|--5-5-5-5-7-7-7-7--|
A|--3-3-3-3-3-3-3-3--|--3-3-3-3-5-5-5-5--|
E|-------------------|-------------------|
    Em                  D
    E E E E E E E E     E E E E E E E E
e|-------------------|-------------------|
B|-------------------|-------------------|
G|--9-9-9-9-9-9-9-9--|--7-7-7-7-7-7-7-7--|
D|--9-9-9-9-9-9-9-9--|--7-7-7-7-7-7-7-7--|
A|--7-7-7-7-7-7-7-7--|--5-5-5-5-5-5-5-5--|
E|-------------------|-------------------|
    C                  (C)
    E E E E E E E E     E E E E E E E E
e|-------------------|-------------------|
B|-------------------|-------------------|
G|--5-5-5-5-5-5-5-5--|--5-5-5-5-5-5-5-5--|
D|--5-5-5-5-5-5-5-5--|--5-5-5-5-5-5-5-5--|
A|--3-3-3-3-3-3-3-3--|--3-3-3-3-3-3-3-3--|
E|-------------------|-------------------|

Guitar 2:
    E E E E E E E E     E E E E E E E E
e|-------------------|-------------------|
B|-------------------|-------------------|
G|--4-4-4-5-5-5-7-7--|--4-4-4-5-5-5-7-7--|
D|--x-x-x-x-x-x-x-x--|--x-x-x-x-x-x-x-x--|
A|--2-2-2-3-3-3-5-5--|--2-2-2-3-3-3-5-5--|
E|-------------------|-------------------|
      E  E  E  E  E  E  E  E      E  E  E  E  E  E  E  E  
e|----------------------------|---------------------------|
B|----------------------------|---------------------------|
G|-/-12-12-12-12-12-12-12-12--|--12-12-12-12-12-12-12-12--|
D|----x--x--x--x--x--x--x--x--|---x--x--x--x--x--x--x--x--|
A|-/-10-10-10-10-10-10-10-10--|--10-10-10-10-10-10-10-10--|
E|----------------------------|---------------------------|


[INTERLUDE]: (same as [INTRO 2])


[VERSE 2]: (same as [VERSE 1])

(repeat [REFRAIN] and [PRECHORUS])

(repeat [CHORUS])

[SOLO]: This is quite easy ^_^

Guitar 1: (do this twice)

     Em                  D
     E E E E E E E E     E E E E E E E E
e:|-------------------|-------------------|
B:|-------------------|-------------------|
G:|--9-9-9-9-9-9-9-9--|--7-7-7-7-7-7-7-7--|
D:|--9-9-9-9-9-9-9-9--|--7-7-7-7-7-7-7-7--|
A:|--7-7-7-7-7-7-7-7--|--5-5-5-5-5-5-5-5--|
E:|-------------------|-------------------|

(cont'd)
     C                  (C)
     E E E E E E E E     E E E E E E E E
e:|-------------------|-------------------|
B:|-------------------|-------------------|
G:|--5-5-5-5-5-5-5-5--|--5-5-5-5-5-5-5-5--|
D:|--5-5-5-5-5-5-5-5--|--5-5-5-5-5-5-5-5--|
A:|--3-3-3-3-3-3-3-3--|--3-3-3-3-3-3-3-3--|
E:|-------------------|-------------------|

Guitar 2:

      Q  e  Q e Q     Q  e Q e Q     W     e       E  E  E  E  E  E  E  E
e:|----------------|--------------|------------|---------------------------|
B:|-/12----10---8--|--------------|-------(8)--|--10-10-10-10-10-10-10-10--|
G:|----------------|--9----7------|------------|---------------------------|
D:|----------------|---------/-7--|--5~~-------|---------------------------|
A:|----------------|--------------|------------|---------------------------|
E:|----------------|--------------|------------|---------------------------|
      Q  e  Q e Q     Q  e Q e S S E    Q S S E Q S S E     W
e:|----------------|------------------|------------------|----------|
B:|-/12----10---8--|---------------8--|-------8-------8==|=(8)~~~---|
G:|----------------|--9----7---7s9----|---7s9-----7s9----|----------|
D:|----------------|------------------|------------------|----------|
A:|----------------|------------------|------------------|----------|
E:|----------------|------------------|------------------|----------|

Guitar 3:

     E E E E E E E E     E E E E E E E E
e:|-------------------|-------------------|
B:|-------------------|-------------------|
G:|--4-4-4-5-5-5-7-7--|--4-4-4-5-5-5-7-7--|
D:|--x-x-x-x-x-x-x-x--|--x-x-x-x-x-x-x-x--|
A:|--2-2-2-3-3-3-5-5--|--2-2-2-3-3-3-5-5--|
E:|-------------------|-------------------|

(cont'd)
       E  E  E  E  E  E  E  E      E  E  E  E  E  E  E  E  
e:|----------------------------|---------------------------|
B:|----------------------------|---------------------------|
G:|-/-12-12-12-12-12-12-12-12--|--12-12-12-12-12-12-12-12--|
D:|----x--x--x--x--x--x--x--x--|---x--x--x--x--x--x--x--x--|
A:|-/-10-10-10-10-10-10-10-10--|--10-10-10-10-10-10-10-10--|
E:|----------------------------|---------------------------|



[CODA]:

Guitar 1:

     Am         Bm          C         (C)
     H  H       H  H        H   H      H   H
e:|----------|----------|----------|------------|
B:|----------|----------|----------|------------|
G:|----------|----------|----------|------------|
D:|--7--7-/--|--9--9-/--|--10--10--|--10--10---|
A:|--x--x----|--x--x----|---x---x--|---x---x----|
E:|--5--5-/--|--7--7-/--|---8---8--|---8---8---|

(cont'd)
     Am         Bm          C            D
     H  H       H  H        H   H        E  E  E  E  E  E  E
e:|----------|----------|------------|------------------------|
B:|----------|----------|------------|------------------------|
G:|----------|----------|------------|------------------------|
D:|--7--7-/--|--9--9-/--|--10--10-/--|--12-12-12-12-12-12-12--|
A:|--x--x----|--x--x----|---x---x----|---x--x--x--x--x--x--x--|
E:|--5--5-/--|--7--7-/--|---8---8-/--|--10-10-10-10-10-10-10--|

Guitar 2:

     H  H     H  H     H  H     H  H
e:|--------|--------|--------|--------|
B:|--------|--------|--------|--------|
G:|--2--2--|--4--4--|--5--5--|--5--5--|
D:|--2--2--|--4--4--|--5--5--|--5--5--|
A:|--0--0--|--2--2--|--3--3--|--3--3--|
E:|--------|--0-----|--------|--------|

(cont'd)
     H  H     H  H     H  H     E E E E E E E E
e:|--------|--------|--------|-------------------|
B:|--------|--------|--------|-------------------|
G:|--2--2--|--4--4--|--5--5--|--7-7-7-7-7-7-7-7--|
D:|--2--2--|--4--4--|--5--5--|--7-7-7-7-7-7-7-7--|
A:|--0--0--|--2--2--|--3--3--|--5-5-5-5-5-5-5-5--|
E:|--------|--0-----|--------|-------------------|



[ENDING CHORUS]:

Guitar 1:

     G                   D
     Q w     E E E E E E E E
e:|-------|-------------------|
B:|-------|-------------------|
G:|-------|--7-7-7-7-7-7-7-7--|
D:|--5----|--7-7-7-7-7-7-7-7--|
A:|--5----|--5-5-5-5-5-5-5-5--|
E:|--3----|-------------------|

(cont'd)
     C                  (C)      D
     E E E E E E E E     E E E E E E E E
e:|-------------------|-------------------|
B:|-------------------|-------------------|
G:|--5-5-5-5-5-5-5-5--|--5-5-5-5-7-7-7-7--|
D:|--5-5-5-5-5-5-5-5--|--5-5-5-5-7-7-7-7--|
A:|--3-3-3-3-3-3-3-3--|--3-3-3-3-5-5-5-5--|
E:|-------------------|-------------------|

(cont'd)
     Em                  D
     E E E E E E E E     E E E E E E E E
e:|-------------------|-------------------|
B:|-------------------|-------------------|
G:|--9-9-9-9-9-9-9-9--|--7-7-7-7-7-7-7-7--|
D:|--9-9-9-9-9-9-9-9--|--7-7-7-7-7-7-7-7--|
A:|--7-7-7-7-7-7-7-7--|--5-5-5-5-5-5-5-5--|
E:|-------------------|-------------------|

(cont'd)
     C                  (C)
     E E E E E E E E     E E E E E E E E
e:|-------------------|-------------------|
B:|-------------------|-------------------|
G:|--5-5-5-5-5-5-5-5--|--5-5-5-5-5-5-5-5--|
D:|--5-5-5-5-5-5-5-5--|--5-5-5-5-5-5-5-5--|
A:|--3-3-3-3-3-3-3-3--|--3-3-3-3-3-3-3-3--|
E:|-------------------|-------------------|

     G                   D
     E E E E E E E E     E E E E E E E E
e:|-------------------|-------------------|
B:|-------------------|-------------------|
G:|-------------------|--7-7-7-7-7-7-7-7--|
D:|--5-5-5-5-5-5-5-5--|--7-7-7-7-7-7-7-7--|
A:|--5-5-5-5-5-5-5-5--|--5-5-5-5-5-5-5-5--|
E:|--3-3-3-3-3-3-3-3--|-------------------|

(cont'd)
     C                  (C)      D
     E E E E E E E E     E E E E e E e
e:|-------------------|-----------------|
B:|-------------------|-----------------|
G:|--5-5-5-5-5-5-5-5--|--5-5-5-5---7----|
D:|--5-5-5-5-5-5-5-5--|--5-5-5-5---7----|
A:|--3-3-3-3-3-3-3-3--|--3-3-3-3---5----|
E:|-------------------|-----------------|

(cont'd)
     Em                  D
     E E E E E E E E     E E E E E E E E
e:|-------------------|-------------------|
B:|-------------------|-------------------|
G:|--9-9-9-9-9-9-9-9--|--7-7-7-7-7-7-7-7--|
D:|--9-9-9-9-9-9-9-9--|--7-7-7-7-7-7-7-7--|
A:|--7-7-7-7-7-7-7-7--|--5-5-5-5-5-5-5-5--|
E:|-------------------|-------------------|

(cont'd)
     C                  (C)
     E E E E E E E E     E E E E E E E E
e:|-------------------|-------------------|
B:|-------------------|-------------------|
G:|--5-5-5-5-5-5-5-5--|--5-5-5-5-5-5-5-5--|
D:|--5-5-5-5-5-5-5-5--|--5-5-5-5-5-5-5-5--|
A:|--3-3-3-3-3-3-3-3--|--3-3-3-3-3-3-3-3--|
E:|-------------------|-------------------|


Guitar 2: (do four times)

     E E E E E E E E     E E E E E E E E
e:|-------------------|-------------------|
B:|-------------------|-------------------|
G:|--4-4-4-5-5-5-7-7--|--4-4-4-5-5-5-7-7--|
D:|--x-x-x-x-x-x-x-x--|--x-x-x-x-x-x-x-x--|
A:|--2-2-2-3-3-3-5-5--|--2-2-2-3-3-3-5-5--|
E:|-------------------|-------------------|

(cont'd)
       E  E  E  E  E  E  E  E      E  E  E  E  E  E  E  E  
e:|----------------------------|---------------------------|
B:|----------------------------|---------------------------|
G:|-/-12-12-12-12-12-12-12-12--|--12-12-12-12-12-12-12-12--|
D:|----x--x--x--x--x--x--x--x--|---x--x--x--x--x--x--x--x--|
A:|-/-10-10-10-10-10-10-10-10--|--10-10-10-10-10-10-10-10--|
E:|----------------------------|---------------------------|
------------------------------------------------||
------------------------------------------------||

OUTRO:

(do these one's below twice)
Guitar 1:
     Em                  D
     E E E E E E E E     E E E E E E E E
e:|-------------------|-------------------|
B:|-------------------|-------------------|
G:|--9-9-9-9-9-9-9-9--|--7-7-7-7-7-7-7-7--|
D:|--9-9-9-9-9-9-9-9--|--7-7-7-7-7-7-7-7--|
A:|--7-7-7-7-7-7-7-7--|--5-5-5-5-5-5-5-5--|
E:|-------------------|-------------------|
     C                  (C)
     E E E E E E E E     E E E E E E E E
e:|-------------------|-------------------|
B:|-------------------|-------------------|
G:|--5-5-5-5-5-5-5-5--|--5-5-5-5-5-5-5-5--|
D:|--5-5-5-5-5-5-5-5--|--5-5-5-5-5-5-5-5--|
A:|--3-3-3-3-3-3-3-3--|--3-3-3-3-3-3-3-3--|
E:|-------------------|-------------------|

Guitar 2:
     E E E E E E  E  E     E E E E E E E E      S  S E   E  E  E  E E E     W
e:|--------------10-10--|-------------------|----------------------------|-----------|
B:|--7-7-7-8-8-8--------|--8-8-8-7-7-7------|--10s12-12-12-10-10-10-8-8==|=(8)~~-----|
G:|---------------------|--------------7-7--|----------------------------|-----------|
D:|---------------------|-------------------|----------------------------|-----------|
A:|---------------------|-------------------|----------------------------|-----------|
E:|---------------------|-------------------|----------------------------|-----------|

Guitar 3:
     E E E E E E E E     E E E E E E E E
e:|-------------------|-------------------|
B:|-------------------|-------------------|
G:|--4-4-4-5-5-5-7-7--|--4-4-4-5-5-5-7-7--|
D:|--x-x-x-x-x-x-x-x--|--x-x-x-x-x-x-x-x--|
A:|--2-2-2-3-3-3-5-5--|--2-2-2-3-3-3-5-5--|
E:|-------------------|-------------------|
       E  E  E  E  E  E  E  E      E  E  E  E  E  E  E  E  
e:|----------------------------|---------------------------|
B:|----------------------------|---------------------------|
G:|-/-12-12-12-12-12-12-12-12--|--12-12-12-12-12-12-12-12--|
D:|----x--x--x--x--x--x--x--x--|---x--x--x--x--x--x--x--x--|
A:|-/-10-10-10-10-10-10-10-10--|--10-10-10-10-10-10-10-10--|
E:|----------------------------|---------------------------|


(do this twice also)
Guitar 1:
     Q    e    Q e  Q          Q   e    Q e  Q
e:|-----------------------|------------------------|
B:|-----------------------|------------------------|
G:|--12-------12---12-----|---12-------12---12-----|
D:|---x--------x----x-----|----x--------x----x-----|
A:|--10-------10---10-----|---10-------10---10-----|
E:|-----------------------|------------------------|

Guitar 2:
     Q    e    Q e  Q          Q   e    Q e  Q
e:|-----------------------|------------------------|
B:|-----------------------|------------------------|
G:|--4-----/--5--/-7------|---4-----/--5--/-7------|
D:|--x--------x----x------|---x--------x----x------|
A:|--2-----/--3--/-5------|---2-----/--3--/-5------|
E:|-----------------------|------------------------|

END ON:

Guitar 1:     Guitar 2:
e:|-------|   e:|-------|
B:|-------|   B:|-------|
G:|--9~~--|   G:|--12~~-|
D:|--9~~--|   D:|---x---|
A:|--7~~--|   A:|--10~~-|
E:|-------|   E:|-------|


There! Done!!! Please Rate my work!




 
 
Callalily - Pasan Tab :: indexed at Ultimate Guitar.
Pasan tabs @ 911Tabs

About the artist behind Pasan Tab:

Callalily is a Filipino pop-rock band, composed of Kean Cipriano (Vocals), Alden Acosta (Lead Guitar), Tatsi Jamnague (Rhythm Guitar), Aaron Ricafrente (Bass) and Lemuel Belaro (Drums).

Indexed at Wikipedia.

Show us your talent, perform Pasan Tab!

Here you can post a video or audio performance. Tell me more ...
Where can we find your performance? Tell me more ...
Your comment:
Please, log in to post your performance.