Artists by letter: A B C D E F G H I J K L M N O P Q R S T U V W X Y Z 0-9

 
Pictures
#----------------------------------PLEASE NOTE---------------------------------#
#This file is the author's own work and represents their interpretation of the #
#song. You may only use this file for private study, scholarship, or research. #
#------------------------------------------------------------------------------#

---Pictures by Sia---   Tabbed by Bob M.

I saw that this song was requested so said I'd give it a go. It's all done by ear so
if it's not 100% that's why but I think it sounds pretty close. Please rate and comment 
the tab!

Standard Tuning

guitar 1 00:13

e---------------|-------------------|
b--7--7---7--7--|--7--7---7--7-7----|
g--7--7---7--7--|--7--7---7--7-7----|
d--7--7---7--7--|--7--7---7--7-7----|
a--5--5---5--5--|--5--5---5--5-5----|
e---------------|-------------------|

e--2--2---2--2--|--2--2---2--2-2----|
b--2--2---2--2--|--2--2---2--2-2----|
g--2--2---2--2--|--2--2---2--2-2----|
d--4--4---4--4--|--4--4---4--4-4----|
a--4--4---4--4--|--4--4---4--4-4----|
e--2--2---2--2--|--2--2---2--2-2----|

e---------------|------------------|
b--5--5---5--5--|--5--5---5--5-5---|
g--5--5---5--5--|--5--5---5--5-5---|
d--5--5---5--5--|--5--5---5--5-5---|
a--3--3---3--3--|--3--3---3--3-3---|
e---------------|------------------|

e--3-3--3-3--3-3--3-3--|
b--3-3--3-3--3-3--3-3--|
g--4-4--4-4--4-4--4-4--|
d--5-5--5-5--5-5--5-5--|
a--5-5--5-5--5-5--5-5--|
e--3-3--3-3--3-3--3-3--|

e---------------|-------------------|
b--7--7---7--7--|--7--7---7--7-7----|
g--7--7---7--7--|--7--7---7--7-7----|
d--7--7---7--7--|--7--7---7--7-7----|
a--5--5---5--5--|--5--5---5--5-5----|
e---------------|-------------------|

guitar 2 00:30

e--10-9----------|---------------|
b----------------|----10---------|
g----------------|---------------|
d----------------|---------------|
a----------------|---------------|
e----------------|---------------|

e--2--2---2--2--|--2--2---2--2-2----|
b--2--2---2--2--|--2--2---2--2-2----|
g--2--2---2--2--|--2--2---2--2-2----|
d--4--4---4--4--|--4--4---4--4-4----|
a--4--4---4--4--|--4--4---4--4-4----|
e--2--2---2--2--|--2--2---2--2-2----|

e---------------|------------------|
b--5--5---5--5--|--5--5---5--5-5---|
g--5--5---5--5--|--5--5---5--5-5---|
d--5--5---5--5--|--5--5---5--5-5---|
a--3--3---3--3--|--3--3---3--3-3---|
e---------------|------------------|

e--3-3--3---3-3--3--|
b--3-3--3---3-3--3--|
g--4-4--4---4-4--4--|
d--5-5--5---5-5--5--|
a--5-5--5---5-5--5--|
e--3-3--3---3-3--3--|



00:39 - Chorus

e------------------|--2--2-2-2-2-2-2--|--2--2-2-2-2-2-2--|--2--2-2-2-------||
b--7--7-7-7-7-7-7--|--2--2-2-2-2-2-2--|--3--3-3-3-3-3-3--|--3--3-3-3---2---||
g--7--7-7-7-7-7-7--|--2--2-2-2-2-2-2--|--4--4-4-4-4-4-4--|--4--4-4-4---2---||
d--7--7-7-7-7-7-7--|--4--4-4-4-4-4-4--|--4--4-4-4-4-4-4--|--4--4-4-4---2---||
a--5--5-5-5-5-5-5--|--4--4-4-4-4-4-4--|--2--2-2-2-2-2-2--|--2--2-2-2---0---||
e------------------|--2--2-2-2-2-2-2--|------------------|-----------------||

guitar 2 - 00:44

e--------------------------|
b--------------------------|
g--------------------------|
d--------------------------|
a---------0h2-------0h2----|
e----0h2-------0h2---------|



e------------------|--2--2-2-2-2-2-2--|--2--2--2--2--2-2--|----------------|
b--7--7-7-7-7-7-7--|--2--2-2-2-2-2-2--|--3--3--2--3--3-3--|---5--5-5--5--5-|
g--7--7-7-7-7-7-7--|--2--2-2-2-2-2-2--|--4--4--2--4--4-4--|---5--5-5--5--5-|
d--7--7-7-7-7-7-7--|--4--4-4-4-4-4-4--|--4--4--4--4--4-4--|---5--5-5--5--5-|
a--5--5-5-5-5-5-5--|--4--4-4-4-4-4-4--|--2--2--4--2--2-2--|---3--3-3--3--3-|
e------------------|--2--2-2-2-2-2-2--|--------2----------|----------------|

guitar 2 - 00:56

e----------------|---------------|
b----------------|---------------|
g----------------|---------------|
d----------------|---------------|
a--5--7--4-5--2--|------0h2--3---|
e----------------|--0h2----------|

e--3--3-3--3--3--|---------------|
b--3--3-3--3--3--|--3-3--5-x-7---|
g--4--4-4--4--4--|--3-3--5-x-7---|
d--5--5-5--5--5--|--3-3--5-x-7---|
a--5--5-5--5--5--|--1-1--3-x-5---|
e--3--3-3--3--3--|---------------|

verse 2 - 01:05

e---------------|-------------------|
b--7--7---7--7--|--7--7---7--7-7----|
g--7--7---7--7--|--7--7---7--7-7----|
d--7--7---7--7--|--7--7---7--7-7----|
a--5--5---5--5--|--5--5---5--5-5----|
e---------------|-------------------|

guitar 2 01:08

e--10-9----------|
b----------------|
g----------------|
d----------------|
a----------------|
e----------------|

e--2--2---2--2--|--2--2---2--2-2----|
b--2--2---2--2--|--2--2---2--2-2----|
g--2--2---2--2--|--2--2---2--2-2----|
d--4--4---4--4--|--4--4---4--4-4----|
a--4--4---4--4--|--4--4---4--4-4----|
e--2--2---2--2--|--2--2---2--2-2----|

e---------------|------------------|
b--5--5---5--5--|--5--5---5--5-5---|
g--5--5---5--5--|--5--5---5--5-5---|
d--5--5---5--5--|--5--5---5--5-5---|
a--3--3---3--3--|--3--3---3--3-3---|
e---------------|------------------|

e--3-3--3-3---3-3--3-3--|
b--3-3--3-3---3-3--3-3--|
g--4-4--4-4---4-4--4-4--|
d--5-5--5-5---5-5--5-5--|
a--5-5--5-5---5-5--5-5--|
e--3-3--3-3---3-3--3-3--|

e---------------|-------------------|
b--7--7---7--7--|--7--7---7--7-7----|
g--7--7---7--7--|--7--7---7--7-7----|
d--7--7---7--7--|--7--7---7--7-7----|
a--5--5---5--5--|--5--5---5--5-5----|
e---------------|-------------------|

guitar 2 - 1:18

e--10------------|---10-9--------|
b----------------|---------------|
g----------------|---------------|
d----------------|---------------|
a----------------|---------------|
e----------------|---------------|

e--2--2---2--2--|--2--2---2--2-2----|
b--2--2---2--2--|--2--2---2--2-2----|
g--2--2---2--2--|--2--2---2--2-2----|
d--4--4---4--4--|--4--4---4--4-4----|
a--4--4---4--4--|--4--4---4--4-4----|
e--2--2---2--2--|--2--2---2--2-2----|

e---------------|------------------|
b--5--5---5--5--|--5--5---5--5-5---|
g--5--5---5--5--|--5--5---5--5-5---|
d--5--5---5--5--|--5--5---5--5-5---|
a--3--3---3--3--|--3--3---3--3-3---|
e---------------|------------------|

guitar 2 01:25

e--8-------------|
b----------------|
g----------------|
d----------------|
a----------------|
e----------------|

e--3-3--3-3---3---3-3--|
b--3-3--3-3---3---3-3--|
g--4-4--4-4---4---4-4--|
d--5-5--5-5---5---5-5--|
a--5-5--5-5---5---5-5--|
e--3-3--3-3---3---3-3--|

Pre chorus - 01:31

e--2--2-2--0--0-0--0-0-0-0---||
b--2--2-2--0--0-0--0-0-0-0---||
g--2--2-2--0--0-0--0-0-0-0---||
d--4--4-4--2--2-2--2-2-2-2---||
a--4--4-4--2--2-2--2-2-2-2---||
e--2--2-2--0--0-0--0-0-0-0---||

01:38 - Chorus

e------------------|--2--2-2-2-2-2-2--|--2--2-2-2-2-2-2--|--2--2-2-2-------||
b--7--7-7-7-7-7-7--|--2--2-2-2-2-2-2--|--3--3-3-3-3-3-3--|--3--3-3-3---2---||
g--7--7-7-7-7-7-7--|--2--2-2-2-2-2-2--|--4--4-4-4-4-4-4--|--4--4-4-4---2---||
d--7--7-7-7-7-7-7--|--4--4-4-4-4-4-4--|--4--4-4-4-4-4-4--|--4--4-4-4---2---||
a--5--5-5-5-5-5-5--|--4--4-4-4-4-4-4--|--2--2-2-2-2-2-2--|--2--2-2-2---0---||
e------------------|--2--2-2-2-2-2-2--|------------------|-----------------||

guitar 2 - 01:43

e--------------------------|
b--------------------------|
g--------------------------|
d--------------------------|
a---------0h2-------0h2----|
e----0h2-------0h2---------|

e------------------|--2--2-2-2-2-2-2--|--2--2--2--2--2-2--|----------------|
b--7--7-7-7-7-7-7--|--2--2-2-2-2-2-2--|--3--3--2--3--3-3--|---5--5-5--5--5-|
g--7--7-7-7-7-7-7--|--2--2-2-2-2-2-2--|--4--4--2--4--4-4--|---5--5-5--5--5-|
d--7--7-7-7-7-7-7--|--4--4-4-4-4-4-4--|--4--4--4--4--4-4--|---5--5-5--5--5-|
a--5--5-5-5-5-5-5--|--4--4-4-4-4-4-4--|--2--2--4--2--2-2--|---3--3-3--3--3-|
e------------------|--2--2-2-2-2-2-2--|--------2----------|----------------|

e--3--3-3--3--3--|---------------|
b--3--3-3--3--3--|--3-3--5-x-7---|
g--4--4-4--4--4--|--3-3--5-x-7---|
d--5--5-5--5--5--|--3-3--5-x-7---|
a--5--5-5--5--5--|--1-1--3-x-5---|
e--3--3-3--3--3--|---------------|

verse 3 - 02:04

e---------------|-------------------|
b--7--7---7--7--|--7--7---7--7-7----|
g--7--7---7--7--|--7--7---7--7-7----|
d--7--7---7--7--|--7--7---7--7-7----|
a--5--5---5--5--|--5--5---5--5-5----|
e---------------|-------------------|

guitar 2 - 2:07

e--14---14-----------------|
b--------------------------|
g--------------------------|
d--------------------------|
a--------------------------|
e--------------------------|



e--2--2---2--2--|--2--2---2--2-2----|
b--2--2---2--2--|--2--2---2--2-2----|
g--2--2---2--2--|--2--2---2--2-2----|
d--4--4---4--4--|--4--4---4--4-4----|
a--4--4---4--4--|--4--4---4--4-4----|
e--2--2---2--2--|--2--2---2--2-2----|

guitar 2 - 2:10

e--14---12-12--------------|
b--------------------------|
g--------------------------|
d--------------------------|
a--------------------------|
e--------------------------|

e---------------|------------------|
b--5--5---5--5--|--5--5---5--5-5---|
g--5--5---5--5--|--5--5---5--5-5---|
d--5--5---5--5--|--5--5---5--5-5---|
a--3--3---3--3--|--3--3---3--3-3---|
e---------------|------------------|

e--3-3--3-3---3-3--3-3--|
b--3-3--3-3---3-3--3-3--|
g--4-4--4-4---4-4--4-4--|
d--5-5--5-5---5-5--5-5--|
a--5-5--5-5---5-5--5-5--|
e--3-3--3-3---3-3--3-3--|

guitar 2 - 2:13

e----10--------------------|
b--------------------------|
g--------------------------|
d--------------------------|
a--------------------------|
e--------------------------|

e---------------|-------------------|
b--7--7---7--7--|--7--7---7--7-7----|
g--7--7---7--7--|--7--7---7--7-7----|
d--7--7---7--7--|--7--7---7--7-7----|
a--5--5---5--5--|--5--5---5--5-5----|
e---------------|-------------------|

e--2--2---2--2--|--2--2---2--2-2----|
b--2--2---2--2--|--2--2---2--2-2----|
g--2--2---2--2--|--2--2---2--2-2----|
d--4--4---4--4--|--4--4---4--4-4----|
a--4--4---4--4--|--4--4---4--4-4----|
e--2--2---2--2--|--2--2---2--2-2----|

e---------------|------------------|
b--5--5---5--5--|--5--5---5--5-5---|
g--5--5---5--5--|--5--5---5--5-5---|
d--5--5---5--5--|--5--5---5--5-5---|
a--3--3---3--3--|--3--3---3--3-3---|
e---------------|------------------|

e--3-3--3-3---3---3-3--|
b--3-3--3-3---3---3-3--|
g--4-4--4-4---4---4-4--|
d--5-5--5-5---5---5-5--|
a--5-5--5-5---5---5-5--|
e--3-3--3-3---3---3-3--|

guitar 2 - 2:21

e--14----------------------|
b--------------------------|
g--------------------------|
d--------------------------|
a--------------------------|
e--------------------------|

Pre chorus - 02:30

e--2--2-2--0--0-0--0-0-0-0---||
b--2--2-2--0--0-0--0-0-0-0---||
g--2--2-2--0--0-0--0-0-0-0---||
d--4--4-4--2--2-2--2-2-2-2---||
a--4--4-4--2--2-2--2-2-2-2---||
e--2--2-2--0--0-0--0-0-0-0---||

guitar 2 - 02:34

e--------------------------|
b--5h7p5-5----7p5----------|
g--------------------------|
d--------------------------|
a--------------------------|
e--------------------------|

02:36 - Chorus

e------------------|--2--2-2-2-2-2-2--|--2--2-2-2-2-2-2--|--2--2-2-2-------||
b--7--7-7-7-7-7-7--|--2--2-2-2-2-2-2--|--3--3-3-3-3-3-3--|--3--3-3-3---2---||
g--7--7-7-7-7-7-7--|--2--2-2-2-2-2-2--|--4--4-4-4-4-4-4--|--4--4-4-4---2---||
d--7--7-7-7-7-7-7--|--4--4-4-4-4-4-4--|--4--4-4-4-4-4-4--|--4--4-4-4---2---||
a--5--5-5-5-5-5-5--|--4--4-4-4-4-4-4--|--2--2-2-2-2-2-2--|--2--2-2-2---0---||
e------------------|--2--2-2-2-2-2-2--|------------------|-----------------||

e------------------|--2--2-2-2-2-2-2--|--2--2--2--2--2-2--|----------------|
b--7--7-7-7-7-7-7--|--2--2-2-2-2-2-2--|--3--3--2--3--3-3--|---5--5-5--5--5-|
g--7--7-7-7-7-7-7--|--2--2-2-2-2-2-2--|--4--4--2--4--4-4--|---5--5-5--5--5-|
d--7--7-7-7-7-7-7--|--4--4-4-4-4-4-4--|--4--4--4--4--4-4--|---5--5-5--5--5-|
a--5--5-5-5-5-5-5--|--4--4-4-4-4-4-4--|--2--2--4--2--2-2--|---3--3-3--3--3-|
e------------------|--2--2-2-2-2-2-2--|--------2----------|----------------|

guitar 2 - 03:19

e----------------|---------------|
b----------------|---------------|
g----------------|---------------|
d----------------|---------------|
a--5--7--4-5--2--|------0h2--3---|
e----------------|--0h2----------|

e--3--3-3--3--3--|---------------|
b--3--3-3--3--3--|--3-3--5-x-7---|
g--4--4-4--4--4--|--3-3--5-x-7---|
d--5--5-5--5--5--|--3-3--5-x-7---|
a--5--5-5--5--5--|--1-1--3-x-5---|
e--3--3-3--3--3--|---------------|

e------------------|--2--2-2-2-2-2-2--|--2--2-2-2-2-2-2--|--2--2-2-2-------||
b--7--7-7-7-7-7-7--|--2--2-2-2-2-2-2--|--3--3-3-3-3-3-3--|--3--3-3-3---2---||
g--7--7-7-7-7-7-7--|--2--2-2-2-2-2-2--|--4--4-4-4-4-4-4--|--4--4-4-4---2---||
d--7--7-7-7-7-7-7--|--4--4-4-4-4-4-4--|--4--4-4-4-4-4-4--|--4--4-4-4---2---||
a--5--5-5-5-5-5-5--|--4--4-4-4-4-4-4--|--2--2-2-2-2-2-2--|--2--2-2-2---0---||
e------------------|--2--2-2-2-2-2-2--|------------------|-----------------||

guitar 2 03:09

e--14--14-14-14-14--14--14-14-14-14-14--14--14-14-14-14--14-14-14-14---|
b--15--15-15-15-15--14--14-14-14-14-14--15--15-15-15-15--15-15-15-15---|
g--14--14-14-14-14--14--14-14-14-14-14--14--14-14-14-14--14-14-14-14---|
d----------------------------------------------------------------------|
a----------------------------------------------------------------------|
e----------------------------------------------------------------------|

e------------------|--2--2-2-2-2-2-2--|--2--2--2--2--2-2--|----------------|
b--7--7-7-7-7-7-7--|--2--2-2-2-2-2-2--|--3--3--2--3--3-3--|---5--5-5--5--5-|
g--7--7-7-7-7-7-7--|--2--2-2-2-2-2-2--|--4--4--2--4--4-4--|---5--5-5--5--5-|
d--7--7-7-7-7-7-7--|--4--4-4-4-4-4-4--|--4--4--4--4--4-4--|---5--5-5--5--5-|
a--5--5-5-5-5-5-5--|--4--4-4-4-4-4-4--|--2--2--4--2--2-2--|---3--3-3--3--3-|
e------------------|--2--2-2-2-2-2-2--|--------2----------|----------------|

guitar 2 - 03:15

e--14--14-14-14-14--14--14-14-14-14--|-14-14--17-x--14-14--8-8--10-10--|
b--15--15-15-15-15--14--14-14-14-14--|-15-15--15-x--15-15--8-8--8--8---|
g--14--14-14-14-14--14--14-14-14-14--|-14-14--16-x--14-14--7-7--7--7---|
d------------------------------------|---------------------------------|
a------------------------------------|---------------------------------|
e------------------------------------|---------------------------------|

e--3--3-3--3--3--|---------------|
b--3--3-3--3--3--|--3-3--5-x-7---|
g--4--4-4--4--4--|--3-3--5-x-7---|
d--5--5-5--5--5--|--3-3--5-x-7---|
a--5--5-5--5--5--|--1-1--3-x-5---|
e--3--3-3--3--3--|---------------|

guitar 2 - 03:33

e--8------8h10--10---|
b------x-------------|
g--------------------|
d--------------------|
a--------------------|
e--------------------|

e----------------|--3--3-3--3--3--|---------------|
b--5--5-5--5--5--|--3--3-3--3--3--|--3-3--5-x-7---|
g--5--5-5--5--5--|--4--4-4--4--4--|--3-3--5-x-7---|
d--5--5-5--5--5--|--5--5-5--5--5--|--3-3--5-x-7---|
a--3--3-3--3--3--|--5--5-5--5--5--|--1-1--3-x-5---|
e----------------|--3--3-3--3--3--|---------------|

guitar 2 - 3:40

e--------17--17------------|
b---15---------------------|
g--------------------------|
d--------------------------|
a--------------------------|
e--------------------------|

e----------------|--3--3-3--3--3--|---------------||
b--5--5-5--5--5--|--3--3-3--3--3--|--3-3--5-x-7---||
g--5--5-5--5--5--|--4--4-4--4--4--|--3-3--5-x-7---||
d--5--5-5--5--5--|--5--5-5--5--5--|--3-3--5-x-7---||
a--3--3-3--3--3--|--5--5-5--5--5--|--1-1--3-x-5---||
e----------------|--3--3-3--3--3--|---------------||

guitar 2 - 03:44
              D*

e----8---10---14-----|
b-------------15-----|
g-------------14-----|
d-------------0------|
a--------------------|
e--------------------|

e--------------------------------------------------||
b--------------------------------------------------||
g-----------------DEDICATED TO---------------------||
d-----------------X EADAOIN X----------------------||
a--------------------------------------------------||
e--------------------------------------------------||



tablature notation:
|| . . . play this bar twice
 x . . . palm muted strings
 p . . . pull-off
 h . . . hammer on
 D*. . . downward strum



My email is ultimate-guitartabber@hotmail.com if you have any questions or
comments but constructive criticism only please.

01.04.09
 
 
Sia - Pictures :: indexed at Ultimate Guitar.
Pictures tabs @ 911Tabs

About the artist behind Pictures:

Sia Kate Isobelle Furler (pronounced /ˈsiːə/ SEE-ah) (born December 18, 1975), also simply known as Sia, is an Australian pop singer. She is noted for her work with Zero 7 and her three major label solo albums.

Indexed at Wikipedia.

Show us your talent, perform Pictures!

Here you can post a video or audio performance. Tell me more ...
Where can we find your performance? Tell me more ...
Your comment:
Please, log in to post your performance.