Artists by letter: A B C D E F G H I J K L M N O P Q R S T U V W X Y Z 0-9
 
Getting In Tune Tab
                                   Getting In Tune (Pete Townshend)
                                               The Who
                                             Who's Next?


Intro:

Piano Tab For Guitar:
|-1-----1-----1-----1-----1-----1-----1-----1------|
|-1-----1-----1-----1-----3-----3-----3-----3------|
|-2-----2-----2-----2-----3-----3-----3-----3-0----|
|----3-----3-----3-----3-----3-----3-----3------3--|
|--------------------------------------------------|
|--------------------------------------------------|

(From "I'm singing this note...")
|-1-----1-----1-----1-----1-----1-----1-----1------|
|-1-----1-----1-----1-----3-----3-----3-----3------|
|-2-----2-----2-----2-----3-----3-----3-----3-0----|
|----3-----3-----3-----3-----3-----3-----3------3--|
|--------------------------------------------------|
|--------------------------------------------------|

(From "I can't pretend there's any meaning...")
|-1-----1-----1-----1-----1-----1-----1-----1------|
|-1-----1-----1-----1-----3-----3-----3-----3------|
|-2-----2-----2-----2-----3-----3-----3-----3-0----|
|----3-----3-----3-----3-----3-----3-----3------3--|
|--------------------------------------------------|
|--------------------------------------------------|

(But I met you..")
|-1-----1-----1-----1-----1-----1-----1-----1------|
|-1-----1-----1-----1-----3-----3-----3-----3------|
|-2-----2-----2-----2-----3-----3-----3-----3-0----|
|----3-----3-----3-----3-----3-----3-----3------3--|
|--------------------------------------------------|
|--------------------------------------------------|

(But I met you..")
|-1-----1-----1-----1-----1-----1-----1-----1------|
|-1-----1-----1-----1-----3-----3-----3-----3------|
|-2-----2-----2-----2-----3-----3-----3-----3-0----|
|----3-----3-----3-----3-----3-----3-----3------3--|
|--------------------------------------------------|
|--------------------------------------------------|


(Guitar comes in)

|---------------------------------------------------------------------------|
|---------------------------------------------------------------------------|
|----------------------------------------3---5p3---3------------------------|
|-3---3-----3--3-----5---5-----6--6----6---6-----6---6-3--3-----------------|
|---------3------------------3---------------------------------1-3-------3--|
|------------------------------------------------------------------1-----1--|


(From "I get a little tired of having to say...")
Piano:
|-1-----1-----1-----1-----1-----1-----1-----1------|
|-1-----1-----1-----1-----3-----3-----3-----3------|
|-2-----2-----2-----2-----3-----3-----3-----3-0----|
|----3-----3-----3-----3-----3-----3-----3------3--|
|--------------------------------------------------|
|--------------------------------------------------|

Guitar:
|-------------------------------|
|-11p10-----------------------6-|
|-------10----------------------|
|----------10-----8h10-7h8-7----|
|-------------------------------|
|-------------------------------|

(From "But when I look in your eyes...")
Piano:
|-1-----1-----1-----1-----1-----1-----1-----1------|
|-1-----1-----1-----1-----3-----3-----3-----3------|
|-2-----2-----2-----2-----3-----3-----3-----3-0----|
|----3-----3-----3-----3-----3-----3-----3------3--|
|--------------------------------------------------|
|--------------------------------------------------|

Guitar:
|----------|
|-------6--|
|-----5----|
|-7h8------|
|----------|
|----------|


               F            A#
I'm getting in tune, riding tune

       F                   C
I'm in tune, and I'm gonna choose


          F              A#
Riding on you (riding on you)

          G#             A#   F
Riding on you (riding on you)


G
  I got it all here in my head

D#
  There's nothing more needs to be said

A#
  I'm just banging on my own piano

C
  I'm getting in tune with the straight and narrow


Guitar Solo:
|----------------------------------------------8----------------------------------------------|
|-8--------11b13--13----11-----------------------11-8--------------/13-13-11-13---11-13-11-13-|
|-----8h10-----------------8-10-----------------------10-8-10---------------------------------|
|-------------------------------10-8-10-----------------------10-8----------------------------|
|---------------------------------------------------------------------------------------------|
|---------------------------------------------------------------------------------------------|

|--------------------------------------------|
|-16b18--13--------13---13-------------------|
|---------------------------------5----p3-5--|
|--------------------------------------------|
|-------------------------------------------|
|--------------------------------------------|

(From "I'm singing this note...")
|-3-----3-----3-----3-----3-----3-----3-----3------|
|-3-----3-----3-----3-----5-----5-----5-----5------|
|-4-----4-----4-----4-----5-----5-----5-----5------|
|----5-----5-----5-----5-----5-----5-----5-----5---|
|--------------------------------------------------|
|--------------------------------------------------|

(From "There's a symphoney...")
|-3-----3-----3-----3-----3-----3-----3-----3------|
|-3-----3-----3-----3-----5-----5-----5-----5------|
|-4-----4-----4-----4-----5-----5-----5-----5------|
|----5-----5-----5-----5-----5-----5-----5-----5---|
|--------------------------------------------------|
|--------------------------------------------------|

(From "But I'm in tune...")
|-3-----3-----3-----3-----3-----3-----3-----3------|
|-3-----3-----3-----3-----5-----5-----5-----5------|
|-4-----4-----4-----4-----5-----5-----5-----5------|
|----5-----5-----5-----5-----5-----5-----5-----5---|
|--------------------------------------------------|
|--------------------------------------------------|


(Guitar comes in)

(From "I'm gonna tune...")
|---------|
|---------|
|-7------|
|-7------|
|-5------|
|---------|


          G              C
Riding on you (riding on you)

          A#             C   G   C   G
Riding on you (riding on you)


            G                C
Hit me with you (Hit me with you)
            
            A#               C
Hit me with you (Hit me with you)

            G                    C   G
Hit me with you (Hit me with you)


|-----------|
|-8---8-8--|
|-----------|
|-----------|
|-----------|
|-----------|


Am
  I've got it all hear in my head

F
  Nothing more needs to be said

C
  Just bangin' on my ol' piano

D
  I'm getting in tune with the straight and narrow

|--------------------------------------------------------------------------|
|------------------------------------------------3------3--3---3------3--3-|
|-----5h7--7---5h7--7--------5h7--7--5h7--7------2-------------2-----------|
|-0---------------------0---------------------0--0-------------0-----------|
|---------------------------------------------------0-3-----------0-3------|
|--------------------------------------------------------------------------|

D
  I'm getting in tune with the straight and narrow

|----------------------------8r7----------10-----7----8-7-5-----------------------8-8-8b10---|
|---------10r8p6---6-6-----------6------------10------------8-6b7-----------8b10-------------|
|-5---7----------7-----7-------------7-----------------------------7-5-7---------------------|
|--------------------------------------------------------------------------------------------|
|--------------------------------------------------------------------------------------------|
|--------------------------------------------------------------------------------------------|

|-14-14-10-------------------------------------------------------|
|----------13----------------------13-------13-------------------|
|-------------11-9-----------12b14----12b14------14r12--11-------|
|------------------10--12-----------------------------------12--|
|----------------------------------------------------------------|
|----------------------------------------------------------------|


D
  I'm getting in tune with the straight and narrow

D
  I'm getting in tune with the straight and narrow

|--------------------------------------------------------------------------------------|
|-13--------13-----------13--------13--------13--------13--------13--------13----------|
|-----12b14-------12b14-----12b14-----12b14-----12b14-----12b14-----12b14-----10-10----|
|-----------------------------------------------------------------------------------12-|
|--------------------------------------------------------------------------------------|
|--------------------------------------------------------------------------------------|

|-------------------------------------------------------------------------------------------------|
|-------------------------------------------------------------------------------------------------|
|-10------------------12b14r12----12b14r12p10----10-10--------------------------------------------|
|----12-10---10-------------------------------12-------12------3------------------------3---------|
|---------------12------------------------------------------------5--3--0--5---5--5--5------5-3-5-|
|-------------------------------------------------------------------------------------------------|

|--------------------------------------------------------------------------|
|--------------------------------------------------------7-7---------------|
|------------------------------------------------------------7-7-5-5-----7-|
|-------------------------------3-----3------------3-----------------7-7---|
|-3h5--3h5--3h5--3h5--3h5--3h5----------5-3--5--3--------------------------|
|--------------------------------------------------------------------------|
                                                   (Fade Away)

Tablature player for this song:
 
 
Who - Getting In Tune Tab :: indexed at Ultimate Guitar.
Getting In Tune tabs @ 911Tabs

Quick tip, so you can enjoy Getting In Tune Tab even more:

You might want to transpose the song if it is too high or too low for you to sing. Just click the desired option while playing a song and all the chords will automatically be transponded into a new key.

Show us your talent, perform Getting In Tune Tab!

Here you can post a video or audio performance. Tell me more ...
Where can we find your performance? Tell me more ...
Your comment:
Please, log in to post your performance.