Artists by letter: A B C D E F G H I J K L M N O P Q R S T U V W X Y Z 0-9
 
Response
[Intro]
E|----------------|
B|----------------|
G|----------------|
D|----------------|
A|----------------|
E|---5---5---5---5|(x4)

[Verse 1]
E|--------------------------------------------|
B|--------------------------------------------|
G|--------------------------------------------|
D|-------------------2-------------------4---6|
A|---------------4-------------------4--------|
E|---5---2---4-----------5---2---4------------|

E|------------------------------------|
B|------------------------------------|
G|------------------------------------|
D|-------------------2----------------|
A|---------------4-------------------4|
E|---5---2---4-----------5---2---4----|

E|--------------------------------------------|
B|--------------------------------------------|
G|--------------------------------------------|
D|-------------------2-------------------4---6|
A|---------------4-------------------4--------|
E|---5---2---4-----------5---2---4------------|

E|----------------------------------------|
B|----------------------------------------|
G|----------------------------------------|
D|-------------------2-------------------2|
A|---------------4-------------------4----|
E|---5---2---4-----------5---2---4--------|

E|--------------------------------------------|
B|--------------------------------------------|
G|-------------------4-------------------6---8|
D|---------------6-------------------6--------|
A|---7---4---6-----------7---4---6------------|
E|--------------------------------------------|

E|------------------------------------|
B|------------------------------------|
G|-------------------4----------------|
D|---------------6-------------------6|
A|---7---4---6-----------7---4---6----|
E|------------------------------------|


E|--------------------------------------------|
B|--------------------------------------------|
G|-------------------4-------------------6---8|
D|---------------6-------------------6--------|
A|---7---4---6-----------7---4---6------------|
E|--------------------------------------------|

E|----------------------------------------|
B|----------------------------------------|
G|-------------------4-------------------4|
D|---------------6-------------------6----|
A|---7---4---6-----------7---4---6--------|
E|----------------------------------------|

[Chorus]
E|----------------|
B|----------------|
G|----------------|
D|----------------|
A|----------------|
E|---5---5---5---5|(x4)

[Verse 2]
E|--------------------------------------------|
B|--------------------------------------------|
G|--------------------------------------------|
D|-------------------2-------------------4---6|
A|---------------4-------------------4--------|
E|---5---2---4---------------2---4------------|

E|----------------------------------------------------|
B|----------------------------------------------------|
G|----------------------------------------------------|
D|-------------------2---------------------------4---6|
A|---------------4-----------------------4---4--------|
E|---5---2---4---------------2---4---4----------------|

E|--------------------------------------------|
B|--------------------------------------------|
G|--------------------------------------------|
D|-------------------2-------------------4---6|
A|---------------4-------------------4--------|
E|---5---2---4---------------2---4------------|

E|----------------------------------------|
B|----------------------------------------|
G|----------------------------------------|
D|-------------------2-------------------2|
A|---------------4-------------------4----|
E|---5---2---4---------------2---4--------|

E|--------------------------------------------|
B|--------------------------------------------|
G|-------------------4-------------------6---8|
D|---------------6-------------------6--------|
A|---7---4---6---------------4---6------------|
E|--------------------------------------------|

E|----------------------------------------------------|
B|----------------------------------------------------|
G|-------------------4---------------------------6---8|
D|---------------6-----------------------6---6--------|
A|---7---4---6---------------4---6---6----------------|
E|----------------------------------------------------|

E|--------------------------------------------|
B|--------------------------------------------|
G|-------------------4-------------------6---8|
D|---------------6-------------------6--------|
A|---7---4---6---------------4---6------------|
E|--------------------------------------------|

E|----------------------------------------|
B|----------------------------------------|
G|-------------------4-------------------4|
D|---------------6-------------------6----|
A|---7---4---6---------------4---6--------|
E|----------------------------------------|


[Chorus]
E|----------------|
B|----------------|
G|----------------|
D|----------------|
A|----------------|
E|---5---5---5---5|(x3)

E|----------------|
B|----------------|
G|----------------|
D|----------------|
A|----------------|
E|---5---5---5---4|

[Verse 3]
E|--------------------------------------------|
B|--------------------------------------------|
G|--------------------------------------------|
D|-------------------2-------------------4---6|
A|---------------4-------------------4--------|
E|---5---2---4-----------5---2---4------------|

E|----------------------------------------|
B|----------------------------------------|
G|----------------------------------------|
D|-------------------2-------------------2|
A|---------------4-------------------4----|
E|---5---2---4-----------5---2---4--------|(x2)

E|--------------------------------------------|
B|--------------------------------------------|
G|-------------------4-------------------6---8|
D|---------------6-------------------6--------|
A|---7---4---6-----------7---4---6------------|
E|--------------------------------------------|

E|----------------------------------------|
B|----------------------------------------|
G|-------------------4-------------------4|
D|---------------6-------------------6----|
A|---7---4---6-----------7---4---6--------|
E|----------------------------------------|(x2)

[Solo]
E|----------------------------------------|
B|-------------------7-------------------9|
G|---9---6---8---9-------9---6---8---9----|
D|----------------------------------------|
A|----------------------------------------|
E|----------------------------------------|(x3)

E|---------------------------------------9|
B|-------------------7--------------------|
G|---9---6---8---9-------9---6---8---9----|
D|----------------------------------------|
A|----------------------------------------|
E|----------------------------------------|(x4)

E|----------------------------------------|
B|-------------------7--------------------|
G|---9---6---8---9-------9---6---8---9----|
D|----------------------------------------|
A|----------------------------------------|
E|----------------------------------------|

E|----------------------------------------|
B|------------------12------------------14|
G|--14--11--13--14------14--11--13--14----|
D|----------------------------------------|
A|----------------------------------------|
E|----------------------------------------|(x2)

E|--------------------------------------14|
B|------------------12--------------------|
G|--14--11--13--14------14--11--13--14----|
D|----------------------------------------|
A|----------------------------------------|
E|----------------------------------------|

E|----------------------------------------|
B|------------------12--------------------|
G|--14--11--13--14------14--11--13--14----|
D|----------------------------------------|
A|----------------------------------------|
E|----------------------------------------|

[Bridge]
E|----------------------------------------|
B|----------------------------------------|
G|-------------------4-------------------4|
D|---------------6-------------------6----|
A|---7---4---6-----------7---4---6--------|
E|----------------------------------------|(x4)

[Outro]
E|----------------|
B|----------------|
G|----------------|
D|----------------|
A|----------------|
E|---5---5---5---5|(x12)

 
 
Night Idea - Response :: indexed at Ultimate Guitar.
Response tabs @ 911Tabs
People who played Night Idea - Response also played these songs by Night Idea:
At The Wheel Tab, Call Tab, At The Wheel, Call

Quick tip, so you can enjoy Response even more:

You might want to transpose the song if it is too high or too low for you to sing. Just click the desired option while playing a song and all the chords will automatically be transponded into a new key.

Show us your talent, perform Response!

Here you can post a video or audio performance. Tell me more ...
Where can we find your performance? Tell me more ...
Your comment:
Please, log in to post your performance.