Artists by letter: A B C D E F G H I J K L M N O P Q R S T U V W X Y Z 0-9

 
Call
[Intro]
E|-----------0-----------------------------------0----------------|
B|-------------------4-------------------4-----------4------------|
G|-------5---------------5-----------5-------5-----------5-------5|
D|---6-----------6-----------6---7---------------------------4----|
A|----------------------------------------------------------------|
E|----------------------------------------------------------------|(x3)

E|-----------0--------------------|
B|-------------------4------------|
G|-------5---------------5--------|
D|---6-----------6-----------6---7|
A|--------------------------------|
E|--------------------------------|

E|-----------0-----------------------------------0----------------|
B|-------------------4-------------------4-----------4------------|
G|-------5---------------5-----------5-------5-----------5-------5|
D|---6-----------6-----------6---7---------------------------4----|
A|----------------------------------------------------------------|
E|----------------------------------------------------------------|(x3)

E|-----------0--------------------|
B|-------------------4------------|
G|-------5---------------5--------|
D|---6-----------6-----------6---7|
A|--------------------------------|
E|--------------------------------|

[Verse 1]
E|-----------0-----------------------------------0----------------|
B|-------------------4-------------------4-----------4------------|
G|-------5---------------5-----------5-------5-----------5-------5|
D|---6-----------6-----------6---7---------------------------4----|
A|----------------------------------------------------------------|
E|----------------------------------------------------------------|(x3)

E|-----------0--------------------------------------------------------|
B|-------------------4------------------------------------------------|
G|-------5---------------5--------------------------------------------|
D|---6-----------6-----------6---7-------6---4------------------------|
A|-----------------------------------------------7---6---4------------|
E|-----------------------------------------------------------7---5---4|

E|-----------0-----------------------------------0----------------|
B|-------------------4-------------------4-----------4------------|
G|-------5---------------5-----------5-------5-----------5-------5|
D|---6-----------6-----------6---7---------------------------4----|
A|----------------------------------------------------------------|
E|----------------------------------------------------------------|(x3)

E|-----------0--------------------|
B|-------------------4------------|
G|-------5---------------5--------|
D|---6-----------6-----------6---7|
A|--------------------------------|
E|--------------------------------|

[Chorus]
E|----------11--------------11----------------------11--------------11--------|
B|--------------10--------------10----------------------10--------------10----|
G|------13----------13--------------13----------13----------13--------------13|
D|----------------------------------------------------------------------------|
A|--11------------------11------------------11------------------11------------|
E|----------------------------------------------------------------------------|

E|----------12--------------12----------------------12--------------12--------|
B|--------------10--------------10----------------------10--------------10----|
G|------13----------13--------------13----------13----------13--------------13|
D|--11------------------11------------------11------------------11------------|
A|----------------------------------------------------------------------------|
E|----------------------------------------------------------------------------|

E|-----------2---------------2---------------------------5---------------5--------|
B|---------------1---------------1---------------------------4---------------4----|
G|-------2-----------2---------------2---------------5-----------5---------------5|
D|---1-------------------1---------------1-------4-------------------4------------|
A|--------------------------------------------------------------------------------|
E|--------------------------------------------------------------------------------|

[Verse 2]
E|------------------------|
B|------------------------|
G|------------------------|
D|------------------------|
A|------------------------|
E|---4-------5-------2---4|(x3)

E|--------------------------------|
B|--------------------------------|
G|--------------------------------|
D|---7---6---4--------------------|
A|---------------7---6---4--------|
E|---------------------------7---5|

E|-------4-------------------------------5------------|
B|---------------4---------------------------5--------|
G|-------------------5-----------6--------------------|
D|---6-----------------------7-----------------------4|
A|----------------------------------------------------|
E|----------------------------------------------------|(x3)

E|-------4--------------------|
B|---------------4------------|
G|-------------------5--------|
D|---6-----------------------7|
A|----------------------------|
E|----------------------------|

[Chorus]
E|----------11--------------11----------------------11--------------11--------|
B|--------------10--------------10----------------------10--------------10----|
G|------13----------13--------------13----------13----------13--------------13|
D|----------------------------------------------------------------------------|
A|--11------------------11------------------11------------------11------------|
E|----------------------------------------------------------------------------|

E|----------12--------------12----------------------12--------------12--------|
B|--------------10--------------10----------------------10--------------10----|
G|------13----------13--------------13----------13----------13--------------13|
D|--11------------------11------------------11------------------11------------|
A|----------------------------------------------------------------------------|
E|----------------------------------------------------------------------------|

E|-----------2---------------2---------------------------5---------------5--------|
B|---------------1---------------1---------------------------4---------------4----|
G|-------2-----------2---------------2---------------5-----------5---------------5|
D|---1-------------------1---------------1-------4-------------------4------------|
A|--------------------------------------------------------------------------------|
E|--------------------------------------------------------------------------------|

[Verse 3]
E|------------------------|
B|------------------------|
G|------------------------|
D|------------------------|
A|------------------------|
E|---4-------5-------2---4|(x3)

E|--------------------------------|
B|--------------------------------|
G|--------------------------------|
D|---7---6---4--------------------|
A|---------------7---6---4--------|
E|---------------------------7---5|

E|-------4-------------------------------5------------|
B|---------------4---------------------------5--------|
G|-------------------5-----------6--------------------|
D|---6-----------------------7-----------------------4|
A|----------------------------------------------------|
E|----------------------------------------------------|(x3)

E|-------4--------------------|
B|---------------4------------|
G|-------------------5--------|
D|---6-----------------------7|
A|----------------------------|
E|----------------------------|

[Outro]
E|----------11--------------11----------------------11--------------11--------|
B|--------------10--------------10----------------------10--------------10----|
G|------13----------13--------------13----------13----------13--------------13|
D|----------------------------------------------------------------------------|
A|--11------------------11------------------11------------------11------------|
E|----------------------------------------------------------------------------|(x2)

E|----------12--------------12----------------------12--------------12--------|
B|--------------10--------------10----------------------10--------------10----|
G|------13----------13--------------13----------13----------13--------------13|
D|--11------------------11------------------11------------------11------------|
A|----------------------------------------------------------------------------|
E|----------------------------------------------------------------------------|(x2)

E|-----------2---------------2---------------------------5---------------5--------|
B|---------------1---------------1---------------------------4---------------4----|
G|-------2-----------2---------------2---------------5-----------5---------------5|
D|---1-------------------1---------------1-------4-------------------4------------|
A|--------------------------------------------------------------------------------|
E|--------------------------------------------------------------------------------|
 
 
Night Idea - Call :: indexed at Ultimate Guitar.
Call tabs @ 911Tabs
People who played Night Idea - Call also played these songs by Night Idea:
At The Wheel, Call Tab, Response, At The Wheel Tab

Quick tip, so you can enjoy Call even more:

Try out the AutoScroller option ... It scrolls the page for you, so you can totally focus on nailing that solo. You can choose among different speeds using your mouse or your keyboard (keys 0, 1, 2 and 3).

Show us your talent, perform Call!

Here you can post a video or audio performance. Tell me more ...
Where can we find your performance? Tell me more ...
Your comment:
Please, log in to post your performance.