Artists by letter: A B C D E F G H I J K L M N O P Q R S T U V W X Y Z 0-9

 
Lo Fi One Mic
-------------------------------------------------------------------------------
                             lo-fi one mic - night gaunts
-------------------------------------------------------------------------------
Tabbed by: James Ibarra
E-mail:

Tuning: kik me = great.days

e|----------------------------------------------|
B|----------------------------------------------|
G|-------------------------------------7-7-7-7--|
D|7-7-7-7------11-11-11-11-------------5-5-5-5--|
A|5-5-5-5------9--9--9--9----9-9-9-9------------|
E|---------------------------7-7-7-7------------|


************************************

| /   slide up
| \   slide down
| h   hammer-on
| p   pull-off
| ~   vibrato
| +   harmonic
| x   Mute note
| b   Bend
| pb  Pre-bend
| br  Bend release
| pbr Pre-bend release
| brb Bend release bend

************************************
 
 
Night Gaunts - Lo Fi One Mic :: indexed at Ultimate Guitar.
Lo Fi One Mic tabs @ 911Tabs
People who played Night Gaunts - Lo Fi One Mic also played these songs by Night Gaunts:
Lo Fi One Mic Tab

Quick tip, so you can enjoy Lo Fi One Mic even more:

YourChords.com Guitar Chords and Tabs Archive is currently indexing over 240'000 songs from 21'000+ different artists. And new chords just keep on coming in, so you will surely never run out of them.

Show us your talent, perform Lo Fi One Mic!

Here you can post a video or audio performance. Tell me more ...
Where can we find your performance? Tell me more ...
Your comment:
Please, log in to post your performance.