Artists by letter: A B C D E F G H I J K L M N O P Q R S T U V W X Y Z 0-9

 
Puppet On A String
Night Beats - Puppet On A String
Tuning: Standard EADGBe
Tabbed by: billybusa(me)

Intro:
     Gm          A                E
E |----------------------------|--0-------------------------------------|------------------------------|
B |--3-----------2-------------|--0-------------------------------------|------------------------------|
G |--3-----------2-------------|--1-------------------------------------|------------------------------|
D |--5-----------2-------------|--2-----------------2--2--2-------------|-------2--2--2----------------|
A |--5-----------0-------------|--2-------------------------------------|------------------------------|
E |--3-------------------------|--0-------------------------------------|------------------------------|

|--------0--0--0-----0-------------------------------|----------------|
|--------------------------4b----------4b------------|--4b------------|
|----------------------------------------------------|----------------|
|----------------------------------------------------|----------------|
|----------------------------------------------------|----------------|
|----------------------------------------------------|----------------|

|--------0--0--0-----0-------------------------------|----------------|
|--/12---------------------3b----------3b------------|--4b-------/12--|
|----------------------------------------------------|----------------|
|----------------------------------------------------|----------------|
|----------------------------------------------------|----------------|
|----------------------------------------------------|----------------|

|--------0--0--0-----0-------------------------------|----------------|
|--------------------------4b----------4b------------|--4b-------/9---|
|----------------------------------------------------|----------------|
|----------------------------------------------------|----------------|
|----------------------------------------------------|----------------|
|----------------------------------------------------|----------------|

|--------0--0--0-----0-------------------------------|----------------|
|--------------------------4b----------4b------------|--4b------------|
|----------------------------------------------------|----------------|
|----------------------------------------------------|----------------|
|----------------------------------------------------|----------------|
|----------------------------------------------------|----------------|

Verse:
Heavily mute + upstrokes.

          E
||--------0-----------0-------|--------0-----------0-------||
||--------0-----------0-------|--------0-----------0-------||
||--------1-----------1-------|--------1-----------1-------||
||--------2-----------2-------|--------2-----------2-------|| x4
||----------------------------|----------------------------||
||----------------------------|----------------------------||

   E                            G     A                E
|--0-----0--------0--0-------|--3--3--0--0----|--------0-------------------|
|--0-----0--------0--0-------|--0--0--2--2----|--------0-------------------|
|--1-----1--------1--1-------|--0--0--2--2----|--------1----------2b-------|
|--2-----2--------2--2-------|--0--0--2--2----|--------2-------------------|
|--2-----2--------2--2-------|--2--2--0--0----|----------------------------|
|--0-----0--------0--0-------|--3--3----------|----------------------------|

|----------0----------------------|---------------0---------------------|-----0-----------0----------|
|---------------------------------|-------------------------------------|----------------------------|
|-----2b------3--2--3--2--3p2p0---|---------2b--------2----3----2-------|--2b-----2b--------2b-------|
|---------------------------------|--2----------------------------------|----------------------------|
|---------------------------------|-------------------------------------|----------------------------|
|---------------------------------|-------------------------------------|----------------------------|

Verse 2:
Heavily mute + upstrokes.

          E
||--------0-----------0-------|--------0-----------0-------||
||--------0-----------0-------|--------0-----------0-------||
||--------1-----------1-------|--------1-----------1-------||
||--------2-----------2-------|--------2-----------2-------|| x4
||----------------------------|----------------------------||
||----------------------------|----------------------------||

Chorus:

    E           G                D           A
||--0-----0--0--3-----3--3----|--2-----2--2--0-----0--0----||
||--0-----0--0--0-----0--0----|--3-----3--3--2-----2--2----||
||--1-----1--1--0-----0--0----|--2-----2--2--2-----2--2----||
||--2-----2--2--0-----0--0----|--0-----0--0--2-----2--2----|| x4
||--2-----2--2--2-----2--2----|--------------0-----0--0----||
||--0-----0--0--3-----3--3----|----------------------------||

Solo:

|-----3-0-0---------0----------|------------------------------------------|
|-------------3b---------------|------------------------------------------|
|------------------------------|--------3-4-4---4-----2-0-2----2p0h2p0----|
|------------------------------|------------------------------------------|
|------------------------------|------------------------------------------|
|------------------------------|------------------------------------------|

|--------3b----0-----------0-------|--------------------------------------|
|--------------0-----3b------------|--------------------------------------|
|----------------------------------|--------3-4-4---4p3p2-0-2-0-2b--------|
|----------------------------------|--------------------------------------|
|----------------------------------|--------------------------------------|
|----------------------------------|--------------------------------------|

|--0--3b-0-----0-------------|--0-----------------------------------------|
|--0--------3b-0-----3b------|--0--------3/5-----------5p3p0--------------|
|----------------------------|--------------------------------2p0---2b----|
|----------------------------|--------------------------------------------|
|----------------------------|--------------------------------------------|
|----------------------------|--------------------------------------------|

|----------------------------|------------|
|----------------------------|------------|
|--------2b-------2b---------|--2b--------|
|----------------------------|------------|
|----------------------------|-------5\---|
|----------------------------|-------5\---|

Verse 3:
Heavily mute + upstrokes.

          E
||--------0-----------0-------|--------0-----------0-------||
||--------0-----------0-------|--------0-----------0-------||
||--------1-----------1-------|--------1-----------1-------||
||--------2-----------2-------|--------2-----------2-------|| x4
||----------------------------|----------------------------||
||----------------------------|----------------------------||

   E                            G     A
|--0-----0--------0--0-------|--3--3--0--0----|
|--0-----0--------0--0-------|--0--0--2--2----|
|--1-----1--------1--1-------|--0--0--2--2----|
|--2-----2--------2--2-------|--0--0--2--2----|
|--2-----2--------2--2-------|--2--2--0--0----|
|--0-----0--------0--0-------|--3--3----------|

|--------------------0-----------0---------|-------------3h0-----0-|
|--------------------0-----3b----------3h4-|--5----/17--------3----|
|--------------2b--------------------------|-----------------------|
|------------------------------------------|-----------------------|
|------------------------------------------|-----------------------|
|------------------------------------------|-----------------------|
        
|--------0----------0------|---0---3p0-------------------------|
|--------0----------0--3---|------------3p0-------3------------|
|--------1----------1------|-----------------2/4-----2p0h2p0---|
|--------2----------2------|-----------------------------------|
|--------------------------|-----------------------------------|
|--------------------------|-----------------------------------|

          E
||--------0-----------0-------|--------0-----------0-------||
||--------0-----------0-------|--------0-----------0-------||
||--------1-----------1-------|--------1-----------1-------||
||--------2-----------2-------|--------2-----------2-------|| x4
||----------------------------|----------------------------||
||----------------------------|----------------------------||

Chorus:

    E           G                D           A
||--0-----0--0--3-----3--3----|--2-----2--2--0-----0--0----||
||--0-----0--0--0-----0--0----|--3-----3--3--2-----2--2----||
||--1-----1--1--0-----0--0----|--2-----2--2--2-----2--2----||
||--2-----2--2--0-----0--0----|--0-----0--0--2-----2--2----|| x4
||--2-----2--2--2-----2--2----|--------------0-----0--0----||
||--0-----0--0--3-----3--3----|----------------------------||

Solo 2:

|--------3b----0-----------0--------0--------0----|
|--------------0-----3b-------3b-------3b---------|
|-------------------------------------------------|
|-------------------------------------------------|
|-------------------------------------------------|
|-------------------------------------------------|

|--------0--------0--------0--------0-----0--0--0---|--0-----0-----------------------0------|
|--3b------3b-------3b-------3b---------------------|--------------3p0--3p0--3p0-----0------|
|---------------------------------------------------|-----------------------------2-----2---|
|---------------------------------------------------|---------------------------------------|
|---------------------------------------------------|---------------------------------------|
|---------------------------------------------------|---------------------------------------|

|--------------------------0-----3-------------------|--0-----0--0--------0-------|
|--------------------------0-----0-----0-----3-------|--0-----0-----3b----0-------|
|--2--4--4-----2p0---------1-------------------------|--1-------------------------|
|--------------------2-----2-------------------------|--2-------------------------|
|----------------------------------------------------|----------------------------|
|----------------------------------------------------|----------------------------|

|--10p7--------7-----------------7-----------10------|
|--------10b---------------10b-----------------------|
|----------------------------------------------------|
|----------------------------------------------------|
|----------------------------------------------------|
|----------------------------------------------------|

|-----12-------15-------12---|-----12----12----12----12\--|
|--------15b------15b--------|--15----15----15----15------|
|----------------------------|----------------------------|
|----------------------------|----------------------------|
|----------------------------|----------------------------|
|----------------------------|----------------------------|

Chorus:

    E           G                D           A
||--0-----0--0--3-----3--3----|--2-----2--2--0-----0--0----||
||--0-----0--0--0-----0--0----|--3-----3--3--2-----2--2----||
||--1-----1--1--0-----0--0----|--2-----2--2--2-----2--2----||
||--2-----2--2--0-----0--0----|--0-----0--0--2-----2--2----|| x4
||--2-----2--2--2-----2--2----|--------------0-----0--0----||
||--0-----0--0--3-----3--3----|----------------------------||

End on E.
 
 
Night Beats - Puppet On A String :: indexed at Ultimate Guitar.
Puppet On A String tabs @ 911Tabs

Quick tip, so you can enjoy Puppet On A String even more:

You might want to transpose the song if it is too high or too low for you to sing. Just click the desired option while playing a song and all the chords will automatically be transponded into a new key.

Show us your talent, perform Puppet On A String!

Here you can post a video or audio performance. Tell me more ...
Where can we find your performance? Tell me more ...
Your comment:
Please, log in to post your performance.