Artists by letter: A B C D E F G H I J K L M N O P Q R S T U V W X Y Z 0-9
 
Storm Of Satans Fire
Normal Tuning

Riff:1		           Riff:2	          Fill:1	Fill:2
|---------------------------|-----------------|--------|-0--0--0--0-|
|---------------------------|-----------------|--------|-0--0--0--0-|
|---------------------------|-----------------|--------|-0--0--0--0-|
|---------7-----6-----5-4-3-|-2-2-2-2-2-2-2-3-|-x__\---|-7--8--7--8-|
|-0-0-0-0---0-0---0-0-------|-0-0-0-0-0-0-0-1-|-x__\\--|-5--6--5--6-|
|---------------------------|-----------------|-----\\-|-0--0--0--0-|

Fill:3	      Fill:4		    Riff:3a   Riff:3b
|--------------|------------------------|---------|-----------------|
|--------------|------------------------|---------|--------5-6-5-4-5|
|--------------|-------------99999999-9-|---------|-----------------|
|-777888777888-|-77788877788899999999-9-|---------|-----------------|
|-555666555666-|-55566655566677777777-7-|-7-3-2-6-|-7-3-2-6---------|
|--------------|------------------------|-5-1-0-4-|-5-1-0-4---------|

Riff:4a      Riff:4b            Riff:4c
|-----------|------------------|------------------------------------|
|-----------|------------------|------------------------------------|
|-----------|------------------|------------------------------------|
|-----------|------------------|------------------------------------|
|-77-6-77-6-|-77-6-666-666-666-|-88-7-777-777-777-------------------|
|-55-4-55-4-|-55-4-444-444-444-|-66-5-555-555-555-------------------|

Mini Solo:1a	      Mini Solo:1b
|--------------------|----------------------------------------------|
|---------9-10-9-----|--------10-11-10------------------------------|
|------/8--------9-8-|-----/9----------10-9-------------------------|
|--7-6---------------|-8-7------------------8-7_-Bar----------------|
|--------------------|--------------------------\-------/\~~--------|
|--------------------|---------------------------\_~~~_/------------|

Riff:5					Fill:5
|--------------------------------------|----------------------------|
|--------------------------------------|----------------------------|
|-9-----7-9------109-----7-9-----7-6-5-|-p------p------p------p-----|
|-7-----5-7------8-7-----5-7-----5-4-3-|8-7-p--6-5-p--4-3-p--3-2--p-|
|---000-----0000-----000-----000-------|---8-7----6-5----4-3-----3-2|
|--------------------------------------|----------------------------|

Mini Solo:2a                       Mini Solo2:b
|---------------------------------|----------------11---------------|
|---------------------------------|----------12-13----13-12---------|
|---------8-----h--p--------------|-12-13-14----------------14------|
|-/7-9-10---10-9-10-9-7-------5-6-|----------------------------15-14|
|-----------------------8-7~~-----|---------------------------------|
|---------------------------------|---------------------------------|

Cont.                     Trill~~~~~~~~~~~~~~~~~~~~~~~~~~~~~~
|----------------11-------14-17-14-17-14-17-14-17~~~14-17-14-17\\---|
|----------12-13----13-12-------------------------------------------|
|-12-13-14----------------------------------------------------------|
|-------------------------------------------------------------------|
|-------------------------------------------------------------------|
|-------------------------------------------------------------------|

Closing riff:
|-------------------------------------------------------------------|
|-------------------------------------------------------------------|
|-------------------------7-6-5~~-----------------------------------|
|-------------------------5-4-3~~-----------------------------------|
|-7777777777777(7)~~~~~~-----------5-7------------------------------|
|-5555555555555(5)~~~~~~-----------3-5------------------------------|


 
 
Nifelheim - Storm Of Satans Fire :: indexed at Ultimate Guitar.
Storm Of Satans Fire tabs @ 911Tabs
People who played Nifelheim - Storm Of Satans Fire also played these songs by Nifelheim:
Sodomizer Tab, Black Curse Tab, Satanic Sacrifice Tab, Sodomizer Tab, Unholy Death Tab, Storm Of Satans Fire Tab

Quick tip, so you can enjoy Storm Of Satans Fire even more:

If you don't really know how to deal with "Absus4" chord and his equally confusing brothers, just put the mouse cursor over them and you will be shown a helpful chord diagram.

Show us your talent, perform Storm Of Satans Fire!

Here you can post a video or audio performance. Tell me more ...
Where can we find your performance? Tell me more ...
Your comment:
Please, log in to post your performance.