Artists by letter: A B C D E F G H I J K L M N O P Q R S T U V W X Y Z 0-9

 
Sodomizer
Normal Tuning

Riff:1		  Riff:2a		    Riff:2b
|----------------|-------------------------|------------------------|
|----------------|-------------------------|------------------------|
|----------------|-------------------------|------------------------|
|--7------7------|-------------------------|------------------------|
|--5-7-9--5-7-9--|-999999-12-10-999999-5-4-|-9-9-9-12-10-9-9-9-5-4--|
|----5-7----5-7--|-777777-10-9--777777-3-2-|-7-7-7-10-9--7-7-7-3-2--|

Solo:1
|----Bar-------------------------------------------21-----------/~~~|
|--11-------/~~~~~--21~~~~~\--------------------------22~~~~\--/----|
|----\-----/----------------\---\----------------------------\/-----|
|-----\---/------------------\---\--/~~~~~\-------------------------|
|------\-/--------------------\---\/-------\--/~~-------------------|
|-------\----------------------\------------\/----------------------|

Fill:1 		Riff:3
|--------------|----------------------------------------------------|
|--------------|----------------------------------------------------|
|--------------|----------------------------------------------------|
|--------------|--------999------------------777--------------------|
|--9--7--5--4--|-----999---99910101010----777---777991010999--------|
|--7--5--3--2--|--777------------------555--------------------------|

solo:2
|-------------------------------------------------------------------|
|-------------------------------------------------------------------|
|---11-12-9---p-----p------11-12-9---p-----p-----11-12-9--p-----p---|
|-9---------12-11-12-11--9---------12-11-12-11-9--------12-11-12-11-|
|-------------------------------------------------------------------|
|-------------------------------------------------------------------|

Cont.
|-------------------------------------------------------------------|
|------------------------------Trill----p-----p-----p-----p---------|
|---11-12-9---p-----p---11~~~--11-14--14-11-14-11-14-11-14-11--11~~-|
|-9---------12-11-12-11---------------------------------------------|
|-------------------------------------------------------------------|
|-------------------------------------------------------------------|

Cont.
|-------------------------------------------------------------------|
|-------------------------------------------------------------------|
|---11-12-9---p-----p------11-12-9---p-----p-----11-12-9--p-----p---|
|-9---------12-11-12-11--9---------12-11-12-11-9--------12-11-12-11-|
|-------------------------------------------------------------------|
|-------------------------------------------------------------------|

Cont.                           Riff:4a     Riff:4b (both under solo)
|------------------------------|-----------|------------------------|
|------------------------------|-----------|------------------------|
|---11-12-9---p-----p---11~~~--|-----------|------------------------|
|-9---------12-11-12-11--------|-----------|--666-------------------|
|------------------------------|--999-5-4--|--444-7-6---------------|
|------------------------------|--777-3-2--|------5-4---------------|

Riff:5a					       Riff:5b
|---------------------------------------------|---------------------|
|---------------------------------------------|---------------------|
|---------------------------------------------|---------------------|
|---------------------------------------------|---------------------|
|-9-9-9-9-10-10-10-10-13-13-13-10-10-10-9-9-9-|-9-10-13-10-9--------|
|-7-7-7-7-8--8--8--8--11-11-11-8--8--8--7-7-7-|-7-8--11-8--7--------|

Solo:3
|--------h--Trill---------------------------------------19----------|
|-12\\0-0-1--1-2----1/4~~--4/8~~--8/12~~--12/19-19~~~------19-20-19-|
|-------------------------------------------------------------------|
|-------------------------------------------------------------------|
|-------------------------------------------------------------------|
|-------------------------------------------------------------------|

Cont.
|-20----------19----------20----------19----------20----------19----|
|----19-20-19----19-20-19----19-20-19----19-20-19----19-20-19----19-|
|-------------------------------------------------------------------|
|-------------------------------------------------------------------|
|-------------------------------------------------------------------|
|-------------------------------------------------------------------|

Cont.
|------20-----------------------------------------------------------|
|20-19----19-20-19-ect.--12---------13----------11------12-------12~|
|--------------------------11-10-11----12-11-12----10-9----11-10----|
|-------------------------------------------------------------------|
|-------------------------------------------------------------------|
|-------------------------------------------------------------------|

Cont.
|-------------------------------------------------------------------|
|-121212121212121212------------------------------------------------|
|-------------------121212121212121212-14~~~~~~~~~~~-11111111111111-|
|-------------------------------------------------------------------|
|-------------------------------------------------------------------|
|-------------------------------------------------------------------|

Cont.
|-------p-------p-------p-------------------------------------------|
|-121215-1212-14-1212-15-1212-------p-------p-------p-----------p---|
|-----------------------------121215-1212-14-1212-15-1212-141417-141|
|-------------------------------------------------------------------|
|-------------------------------------------------------------------|
|-------------------------------------------------------------------|

Cont.
|-------------------------------------------------------------------|
|----p-------p-----------p--------p--------p---------15-------------|
|4-16-1414-17-1414-111114-1111-13-1111-14-1111-ect.-----14-16161616-|
|-------------------------------------------------------------------|
|-------------------------------------------------------------------|
|-------------------------------------------------------------------|

Cont.
|-------------------------------------------------------------------|
|-------------Trill-------------------Bar---------------------------|
|161616161616-16-19-161616161616~~~~16~\--------------------16\\\---|
|---------------------------------------\----/\---------------------|
|----------------------------------------\--/--\-----/\~~~~~--------|
|-----------------------------------------\/----\~~~/---------------|


 
 
Nifelheim - Sodomizer :: indexed at Ultimate Guitar.
Sodomizer tabs @ 911Tabs
People who played Nifelheim - Sodomizer also played these songs by Nifelheim:
Sodomizer Tab, Black Curse Tab, Sodomizer Tab, Satanic Sacrifice Tab, Unholy Death Tab, Storm Of Satans Fire Tab

Quick tip, so you can enjoy Sodomizer even more:

If you don't really know how to deal with "Absus4" chord and his equally confusing brothers, just put the mouse cursor over them and you will be shown a helpful chord diagram.

Show us your talent, perform Sodomizer!

Here you can post a video or audio performance. Tell me more ...
Where can we find your performance? Tell me more ...
Your comment:
Please, log in to post your performance.