Artists by letter: A B C D E F G H I J K L M N O P Q R S T U V W X Y Z 0-9
 
Evil Blasphemies
  - palm mute           /  - slide up to
\  - slide down to       ~  - vibrato
h  - hammer on           b  - Bend
p  - pull off            Suffixes for bend
t  - tap                 f  - full bend    h - half bend
ph - pinched harmonic    q  - quarter bend t - tap bend
*  - see comment         ^  - Hold bend    r release bend
x  - Stuccatto           ~  - vibrato bend
,  - slight palm mute    () - ghost note, sustained note
"  - tremolo note         - Trill

Tunning E A D G B E

Intro Pt.1
gtr.1 (clean with slight reverb)
--------12----12--11--(11)--------11----11--10--(10)-- | |
-10-------------------------9------------------------- | |
-----9-------------------------8----------------------.|2|
------------------------------------------------------.|x|
------------------------------------------------------ | |
------------------------------------------------------ | |

gtr.2 (clean with slightly more reverb)
------------------------------------------------------ | |
-10-----10----9--------(9)--9-----9----8--------(8)--- | |
-----9-------------------------8----------------------.|2|
------------------------------------------------------.|x|
------------------------------------------------------ | |
------------------------------------------------------ | |

Intro Pt.2
gtr.1
-----------------------------------------------------------------|
-----------------------------------------------------------------|
-----------------------------------------------------------------|
-7-7---8-7-8-7-5-7-7---8-7-8-7-5-7-7---8-7-8-7-5-7-7---8-7-8-7-5-|
-7-7---8-7-8-7-5-7-7---8-7-8-7-5-7-7---8-7-8-7-5-7-7---8-7-8-7-5-|
-----------------------------------------------------------------|

gtr.2
-----------------------------------------------------------------|
-----------------------------------------------------------------|
-----------------------------------------------------------------|
-----------------------------------------------------------------|
-----------------------------------7---7---7---7---7---7---7---7-|
-----------------------------------5---5---5---5---5---5---5---5-|

Verse
both gtr's
------------------------------------------------------------|
------------------------------------------------------------|
------------------------------------------------------------|
-7--(7)87875/7-7---(7)65653/7-7---(7)65653/7-7---(7)65653/7-|
-7--(7)87875/7-7---(5)65653/7-7---(7)65653/7-7---(7)65653/7-|
-5--(5)65653/5-5---(5)65653/5-5---(5)65653/5-5---(5)65653/5-|

Verse Continued
-------------------------------------------------------------  | |
-------------------------------------------------------------  | |
------------------------------------------------------------- .|2|
-6""""""""""""""""""""""""""""""""""""""""""""""""""""/////(6).|x|
-6""""""""""""""""""""""""""""""""""""""""""""""""""""/////(6) | |
-4""""""""""""""""""""""""""""""""""""""""""""""""""""/////(4) | |

Transition 1
both gtr's
------------------------------------------------------------|
------------------------------------------------------------|
------------------------------------------------------------|
-7--(7)87875/7-7---(7)65653/7-7---(7)65653/7-7---(7)65653/7-|
-7--(7)87875/7-7---(5)65653/7-7---(7)65653/7-7---(7)65653/7-|
-5--(5)65653/5-5---(5)65653/5-5---(5)65653/5-5---(5)65653/5-|

Chorus
gtr.1
------------------------------------------------- | |
------------------------------------------------- | |
-------------------------------------------------.|2|
-7"""""""""""8"""""""""""10""""""""""11"""""""""".|x|
-7"""""""""""8"""""""""""10""""""""""11"""""""""" | |
-5"""""""""""6"""""""""""8"""""""""""9""""""""""" | |

gtr.2 (Lead)

Chorus Continued
gtr.1
------------------------------------------------- | |
-10""""""""""11""""""""""13""""""""""14"""""""""" | |
-9"""""""""""10""""""""""12""""""""""13"""""""""".|2|
-7"""""""""""8"""""""""""10""""""""""11"""""""""".|x|
------------------------------------------------- | |
------------------------------------------------- | |

gtr.2 (Lead)

Transition
both gtr's
---------------------------------|
---------------------------------|
---------------------------------|
-7---7---7---7---7---7---7---7---|
-7---7---7---7---7---7---7---7---|
-5---5---5---5---5---5---5---5---|

Transition Continued
both gtr's
------------------------------------------------------------|
------------------------------------------------------------|
------------------------------------------------------------|
-7--(7)87875/7-7---(7)65653/7-7---(7)65653/7-7---(7)65653/7-|
-7--(7)87875/7-7---(5)65653/7-7---(7)65653/7-7---(7)65653/7-|
-5--(5)65653/5-5---(5)65653/5-5---(5)65653/5-5---(5)65653/5-|

Transition Continued
both gtr's
-------------------------------------------------------------|
-------------------------------------------------------------|
-------------------------------------------------------------|
-6""""""""""""""""""""""""""""""""""""""""""""""\3"""""""""""
-6""""""""""""""""""""""""""""""""""""""""""""""\3"""""""""""
-4""""""""""""""""""""""""""""""""""""""""""""""\1"""""""""""

Interlude
both gtr's
------------------------------------------- | |
------------------------------------------- | |
-------------------------------------------.|2|
-7-----(7)-9-10---(10)-6---(6)-8-9-----(9)-.|x|
-7-----(7)-9-10---(10)-6---(6)-8-9-----(9)- | |
-5-----(5)-7-8-----(8)-4---(4)-6-7-----(7)- | |

Interlude Continued
gtr.1
------------------------------------------- | |
------------------------------------------- | |
-------------------------------------------.|2|
-7-----(7)-9-10---(10)-6---(6)-8-9-----(9)-.|x|
-7-----(7)-9-10---(10)-6---(6)-8-9-----(9)- | |
-5-----(5)-7-8-----(8)-4---(4)-6-7-----(7)- | |

gtr.2 (Lead)
-------12--1211""""""""-----11-1110"""""""" | |
-10------10------------9------9------------ | |
----9--------------------8-----------------.|2|
-------------------------------------------.|x|
------------------------------------------- | |
------------------------------------------- | |

[Intro Pt.2]

[Verse]

[Chorus]

Outro
both gtr's
-------------------------------------|
-------------------------------------|
-------------------------------------|
-7--7----------------------(7)-8-8-8-|
-7--7----------------------(7)-8-8-8-|
-5--5----------------------(5)-6-6-6-|
 
 
Nifelheim - Evil Blasphemies :: indexed at Ultimate Guitar.
Evil Blasphemies tabs @ 911Tabs
People who played Nifelheim - Evil Blasphemies also played these songs by Nifelheim:
Sodomizer Tab, Black Curse Tab, Satanic Sacrifice Tab, Sodomizer Tab, Unholy Death Tab, Storm Of Satans Fire Tab

Quick tip, so you can enjoy Evil Blasphemies even more:

After the registration (which takes just 10 seconds, remember?) you will be able to use your profile - your very own piece of YourChords.com.

Show us your talent, perform Evil Blasphemies!

Here you can post a video or audio performance. Tell me more ...
Where can we find your performance? Tell me more ...
Your comment:
Please, log in to post your performance.