Artists by letter: A B C D E F G H I J K L M N O P Q R S T U V W X Y Z 0-9

 
Lep Dan Za Smrt
Verse:

C#m           E             H             G#m
e|-----------------------------------------------------------------|
B|-----------------------------------------------------------------|
G|-6--6-6--6-6-8-9--9-9--9-9-9-------------------------------------|  6x
D|-6--6-6--6-6-8-9--9-9--9-9-9-9--9-9--9-9-9-13--13-13-13-13-13-13-|
A|-4--4-4--4-4-6-7--7-7--7-7-7-9--9-9--9-9-9-11--11-11-11-11-11-11-|
E|-----------------------------7--7-7--7-7-7-----------------------|

C#m        E H        G#m
Sonce je sijalo, in sirene so tulile.
   C#m        E  H    G#m
Nebo bilo je modro, skoraj brez oblačka.
      C#m           E  H       G#m
Pod svetlo rumenim soncem sva tekla po cesti,
    C#m          E      H    G#m
Ko naju je objel prvi blisk,   sva padla



Chorus:

E   H        A                     H
Aaaaa, pa tako lep dan je bil, preveč lep za smrt.   4x



Solo: (E H A H)

e|-12---12-11-9-----------------------------------------|
B|--------------12---12/14-12-10---10-9-10-12--12/14\12-|
G|------------------------------------------------------|
D|------------------------------------------------------|
A|------------------------------------------------------|
E|------------------------------------------------------|

e|-12---12-11-9--------------------------------12------12----12----|
B|--------------12---12/14-12-10---10-9-10-12-----12------12----12-|
G|-----------------------------------------------------------------|
D|-----------------------------------------------------------------|
A|-----------------------------------------------------------------|
E|-----------------------------------------------------------------|

e|----------------------------------12----12-----|
B|---12-10-9-10----9-10-9-10-9--12-----12----12--|
G|-----------------------------------------------|
D|-----------------------------------------------|
A|-----------------------------------------------|
E|-----------------------------------------------|

e|------------------------------12----|
B|---12-10-9-10----9-10-9-10-9-(14)---|
G|------------------------------------|
D|------------------------------------|
A|------------------------------------|
E|------------------------------------|



Verse: (E   H   C#m   A G# F#)

Ležala sva v krvi sredi gorečega
Zraka in ognja, ležala pod soncem.
Razžarjenim, rdečim, neresničnim,
Sredi obzorja zavitega v dim,
Sredi prvega dne vojne.



Chorus:
E   H        A                     H
Aaaaa, pa tako lep dan je bil, preveč lep za smrt.   4x



Verse:
 C#m          E       H       G#m
Moj strah in zadnji dih, drgetanje in jok,
  C#m     E H    G#m
Bliža se smrt, smrt in ne ljubezen.
  C#m   E H       G#m                  C#m        E  H
Tvoje oči   s pogledom tja, kjer je nekoč sijalo sonce,
 G#m
So bile mrtve.



Chorus:
E   H        A                     H
Aaaaa, pa tako lep dan je bil, preveč lep za smrt.   4x

Tab by Gašper Čefarin

 
 
Niet - Lep Dan Za Smrt :: indexed at Ultimate Guitar.
Lep Dan Za Smrt tabs @ 911Tabs
People who played Niet - Lep Dan Za Smrt also played these songs by Niet:
Bil Je Maj Chords, Bil Je Maj Chords, Februar Chords, Lep Dan Za Smrt Bass Tab, Ritem Clovestva Chords, Lep Dan Za Smrt Tab

About the artist behind Lep Dan Za Smrt:

Niet was a punk rock and hardcore punk band from Ljubljana, Slovenia. They were one of the most iconic and influential music groups of the Slovenian punk movement and the Punk in Yugoslavia in general. The band was active from 1983 to 1988, from 1993 to 1994 and was revived in 2008.

Indexed at Wikipedia.

Show us your talent, perform Lep Dan Za Smrt!

Here you can post a video or audio performance. Tell me more ...
Where can we find your performance? Tell me more ...
Your comment:
Please, log in to post your performance.