Artists by letter: A B C D E F G H I J K L M N O P Q R S T U V W X Y Z 0-9
 
Hoe
HOE     -       Nielson & Miss Montreal

dit is een leuk lied dat je zonder veel moeite helemaal mee kan spelen. in de 
andere versie mis ik een aantal akkoorden en een eenvoudige manier om het intro en 
de breaks te spelen. veel plezier.

CAPO OP 3

Intro:
   A B A B/C                  / D                   /
e|--------/--0--0-0-0---------/--2--2-2-2---2-------/
B|--------/--1--1-1-1---------/--3--3-3-3---3-------/
G|--------/--0--0-0-0--------0/--2--2-2-2---2------0/
D|--------/--2--2-2-2----0-2--/0----------0----0h2--/
A|-0h2-0h2/3-----------3------/---------------------/
E|--------/-------------------/---------------------/

G  G/F#               /Em                      /
e|---3--3-3-3-----------/--0--0-0-0-----0-----0--/
B|---3--3-3-3-----------/--0--0-0-0-----0-----0--/
G|---0--0-0-0-----------/--0--0-0-0-----0-----0--/
D|---0--0-0-0-----------/--2--2-2-2-----2-----2--/
A|---2--2-2-2------0-0h2/--2--2-2-2-----2-----2--/
E|3------------2-3------/0-----------0-----0-----/

C                       D                                     
   En ineens zag ik je     lopen
            G           G/F#            Em                          
En ik dacht       oehoe           oehoe 
C                            D                                
   Ik was meteen onderste -    boven 
              G            G/F#            Em                      
En jij om de        hoehoe         hoehoek 
C                           Dsus4       D /                         
   En we liepen samen ver -         der 
            G            D           Am                          
En ik dacht        oehoe        oehoe 
        C                                                  
Passen     wij ineens zo 
G              D            Am                                    
        Goehoe       oehoed 
          C                                                
Bij el -    kaar en ik weet niet wat ik 
G            D           Am                                      
      Doehoe      doehoe 
     C           C/B           Am                                  
Hoe     zijn we      hier be -     land 
              D           G /                                
       Hoe oe      hoe oe

Break:
  C                    / D                   /
e|--0--0-0-0-----------/--2--2-2-2---2-------/
B|--1--1-1-1-----------/--3--3-3-3---3-------/
G|--0--0-0-0----------0/--2--2-2-2---2------0/
D|--2--2-2-2------0-2--/0----------0----0h2--/
A|3-----------2h3------/---------------------/
E|---------------------/---------------------/

G  G/F#               /Em                      /
e|---3--3-3-3-----------/--0--0-0-0-----0-----0--/
B|---3--3-3-3-----------/--0--0-0-0-----0-----0--/
G|---0--0-0-0-----------/--0--0-0-0-----0-----0--/
D|---0--0-0-0-----------/--2--2-2-2-----2-----2--/
A|---2--2-2-2------0-0h2/--2--2-2-2-----2-----2--/
E|3------------2-3------/0-----------0-----0-----/

C                     D                                      
   En vliegen door de     dagen /
             G            G/F#           Em                        
En het voelt       Goehoe          oehoed 
C                                 D                           
   En ik moet het eigenlijk niet    vragen 
                        G             G/F#          Em             
Maar wat nou als ik het        Doe oe        doe oe 
C                        Dsus4      D /                              
     Wil je samen ver -        der 
            G           D          Am                            
En ik dacht       oehoe      oehoe 
        C                                                  
Passen    wij ineens zo 
G             D             Am                                  
       Goehoe        oehoed 
         C                                                
Bij el -     kaar en ik weet niet wat ik 
G            D              Am                                  
      Doehoe         doehoe 
     C         C/B            Am                                   
Hoe    zijn we      hier be -     land 
               D                                           
       Hoe oe        hoe oe G /

Break:
   A B A B/C                    / D                   /
e|--------/--0--0-0-0-----------/--2--2-2-2---2-------/
B|--------/--1--1-1-1-----------/--3--3-3-3---3-------/
G|--------/--0--0-0-0----------0/--2--2-2-2---2------0/
D|--------/--2--2-2-2------0-2--/0----------0----0h2--/
A|-0h2-0h2/3-----------2h3------/---------------------/
E|--------/---------------------/---------------------/

G  G/F#               /Em                      /
e|---3--3-3-3-----------/--0--0-0-0-----0-----0--/
B|---3--3-3-3-----------/--0--0-0-0-----0-----0--/
G|---0--0-0-0-----------/--0--0-0-0-----0-----0--/
D|---0--0-0-0-----------/--2--2-2-2-----2-----2--/
A|---2--2-2-2------0-0h2/--2--2-2-2-----2-----2--/
E|3------------2-3------/0-----------0-----0-----/

G5                                                   
Hoe -     oe  hoe oe oe 
G5               G /                                          
    Hoe oe oe oe

G /           D /           Am /                                    
        oehoe         oehoe  
        -                                                  
Passen     wij ineens zo 
G /            D /           Am /                                  
        Goehoe        oehoed 
          C                                                
Bij el -     kaar en ik weet niet wat ik 
G              D             Am                                   
        Doehoe        doehoe 
     C           C/B             Am                                 
Hoe     zijn we       hier be -      land 
               D             G /                              
        Hoe oe        hoe oe

G            D           Am                          
En ik dacht        oehoe       oehoe 
        C                                                  
Passen     wij ineens zo 
G             D              Am                                 
       Goehoe         oehoed 
          C                                                
Bij el -     kaar en ik weet niet wat ik 
G             D              Am                                  
       Doehoe         doehoe 
     C           C/B             Am                                 
Hoe     zijn we       hier be -      land 
               D            G //                               
       Hoe oe       hoe oe



A     x0xxxx
B     x2xxxx
C     x32010
D     xx0232
G     320033
G/F#  220033
Em    022000
Dsus4 xx0233
Am    x02210
C/B   x22010
G5    xxx03x

 
 
Nielson Miss Montreal - Hoe :: indexed at Ultimate Guitar.
Hoe tabs @ 911Tabs
People who played Nielson Miss Montreal - Hoe also played these songs by Nielson Miss Montreal:
Hoe Chords, Hoe Chords, Hoe

Quick tip, so you can enjoy Hoe even more:

You might want to transpose the song if it is too high or too low for you to sing. Just click the desired option while playing a song and all the chords will automatically be transponded into a new key.

Show us your talent, perform Hoe!

Here you can post a video or audio performance. Tell me more ...
Where can we find your performance? Tell me more ...
Your comment:
Please, log in to post your performance.