Artists by letter: A B C D E F G H I J K L M N O P Q R S T U V W X Y Z 0-9

 
Josephine
based off of this video: https://www.youtube.com/watch?v=gStwKE6GHEo


D#|---------------------------------------------------------------------------|
A#|---------------------------------------------------------------------------|
F#|--6-6-6-6-6-6-6-6-6-6-6-6-6-6-6-6------------------------------------------|
C#|---------------------------------------------------------------------------|
G#|--7-7-7-7-7-7-7-7-5-5-5-5-5-5-5-5------------------------------------------| 2x
D#|---------------------------------------------------------------------------|

     "josephine: seven years older..."
D#|---------------------------------------------------------------------------|
A#|---------------------------------------------------------------------------|
F#|--6-6-6-6-6-6-6-6-6-6-6-6-6-6-6-6------------------------------------------|
C#|--------7-7-6-6------------------------------------------------------------|
G#|--7-7-7-7-7-7-7-7-5-5-5-5-5-5-5-5------------------------------------------| 4x
D#|---------------------------------------------------------------------------|

D#|---------------------------------------------------------------------------|
A#|---------------------------------------------------------------------------|
F#|--6-6-6-6-6-6-6-6-6-6-6-6-6-6-6-6------------------------------------------|
C#|--------7-7-6-6------------------------------------------------------------|
G#|--7-7-7-7-7-7-7-7-5-5-5-5-5-5-5-5------------------------------------------| 2x
D#|---------------------------------------------------------------------------|

     "just trying to get a grasp on the etiquette..."
D#|---------------------------------------------------------------------------|
A#|---------------------------------------------------------------------------|
F#|--6-6-6-6-6-6-6-6-6-6-6-6-6-6-6-6------------------------------------------|
C#|--------7-7-6-6------------------------------------------------------------|
G#|--7-7-7-7-7-7-7-7-5-5-5-5-5-5-5-5------------------------------------------| 4x
D#|---------------------------------------------------------------------------|
    
      "oh i really want to..."
D#|---------------------------------------------------------------------------|
A#|------------3--3-3-3-3-3--------------3--3-3-3-3-3--3-3-3-3-3-3-3-3--------|
F#|--6-6--2-2--2--2-2-2-2-2----2-2--1-1--2--2-2-2-2-2--4-4-4-4-4-4-4-4--------|
C#|--7-7--4-4------------------2-2--2-2----------------4-4-4-4-4-4-4-4--------|
G#|--7-7--4-4-----------------------2-2----------------2-2-2-2-2-2-2-2--------| 2x
D#|---------------------------------------------------------------------------|

D#|---------------------------------------------------------------------------|
A#|---------------------------------------------------------------------------|
F#|--6-6-6-6-6-6-6-6-6-6-6-6-6-6-6-6------------------------------------------|
C#|--------7-7-6-6------------------------------------------------------------|
G#|--7-7-7-7-7-7-7-7-5-5-5-5-5-5-5-5------------------------------------------| 2x
D#|---------------------------------------------------------------------------|

    "kept trying to talk..."
D#|---------------------------------------------------------------------------|
A#|---------------------------------------------------------------------------|
F#|--6-6-6-6-6-6-6-6-6-6-6-6-6-6-6-6------------------------------------------|
C#|--------7-7-6-6------------------------------------------------------------|
G#|--7-7-7-7-7-7-7-7-5-5-5-5-5-5-5-5------------------------------------------| 4x
D#|---------------------------------------------------------------------------|

    "you started coming and reminisce about the past..."
D#|---------------------------------------------------------------------------|
A#|---------------------------------------------------------------------------|
F#|--6-6-6-6-6-6-6-6-6-6-6-6-6-6-6-6------------------------------------------|
C#|--------7-7-6-6------------------------------------------------------------|
G#|--7-7-7-7-7-7-7-7-5-5-5-5-5-5-5-5------------------------------------------| 4x
D#|---------------------------------------------------------------------------|

    "and all i want is a moment with someone..."
D#|---------------------------------------------------------------------------|
A#|---------------------------------------------------------------------------|
F#|--6-6-6-6-6-6-6-6-6-6-6-6-6-6-6-6------------------------------------------|
C#|--------7-7-6-6------------------------------------------------------------|
G#|--7-7-7-7-7-7-7-7-5-5-5-5-5-5-5-5------------------------------------------| 4x
D#|---------------------------------------------------------------------------|

      "oh i really want to..."
D#|---------------------------------------------------------------------------|      D#|----|
A#|------------3--3-3-3-3-3--------------3--3-3-3-3-3--3-3-3-3-3-3-3-3--------|      A#|-3--|
F#|--6-6--2-2--2--2-2-2-2-2----2-2--1-1--2--2-2-2-2-2--4-4-4-4-4-4-4-4--------|      F#|-2--|
C#|--7-7--4-4------------------2-2--2-2----------------4-4-4-4-4-4-4-4--------|      C#|----|
G#|--7-7--4-4-----------------------2-2----------------2-2-2-2-2-2-2-2--------| 2x   G#|----| 1x
D#|---------------------------------------------------------------------------|      D#|----|

     "ooooooooo"
D#|---------------------------------------------------------------------------|
A#|------------------3-3------------------------------------------------------|
F#|--6-6-6-7-7-7-7-7-2-2-2-2-2-2-1-1------------------------------------------|
C#|----------------------2-2-4-4-2-2------------------------------------------|
G#|--7-7-7-9-9-9-9-9---------4-4-2-2------------------------------------------| 2x
D#|---------------------------------------------------------------------------|

     "so foolish, i was so tamed..."
D#|---------------------------------------------------------------------------|
A#|--3-3----------------------------------------------------------------------|
F#|--2-2-2-2-2-2-1-1----------------------------------------------------------|
C#|------2-2-4-4-2-2----------------------------------------------------------|
G#|----------4-4-2-2----------------------------------------------------------| 8x
D#|---------------------------------------------------------------------------|

D#|----|
A#|-3--|
F#|-2--|
C#|----|
G#|----| 1x
D#|----|

lyrics:

josephine: seven years older, was caught off guard when you asked me to come over. 
not really sure what we were hanging out for, i heard you talking in the hall so i listened through the door 

just trying to get a grasp on the etiquette. if you keep touching my knee should i kiss you on the lips? 
never really played with fire like you, im like some building burning down, i feel me coming unglued. 

oh i really want to be the one who gets to know you better than anyone else, it beats talking to myself. 
or is that selfish? i dont want to sound too helpless or demented, i cant help it. 

kept trying to talk but you were getting caught up, you admit that you probably shouldnt have smoked that much
she says “can we just lie here and find a way to kill some time here?” 

you started coming and reminisce about the past, i could see it your eyes, i could tell you want it back. 
she says “ he used to call me ‘baby’, now he just thinks im crazy

and all i want is a moment with someone where i dont have to be anything for anyone, but myself....
....its like we all build our own hell’s...” 

oh i really want to be the one who gets to know you better than anyone else, it beats talking to myself. 
or is that selfish? i dont want to sound too helpless or demented, i cant help it. 

so foolish, i was so tamed. how you called, and i came, have you ever ran at something head first, 
and then crawled away?
 
 
Oso Oso - Josephine :: indexed at Ultimate Guitar.
Josephine tabs @ 911Tabs
People who played Oso Oso - Josephine also played these songs by Oso Oso:
This Must Be My Exit Tab, This Must Be My Exit, Get There When Youre There, Neighbors, This Must Be My Exit

Quick tip, so you can enjoy Josephine even more:

If you don't really know how to deal with "Absus4" chord and his equally confusing brothers, just put the mouse cursor over them and you will be shown a helpful chord diagram.

Show us your talent, perform Josephine!

Here you can post a video or audio performance. Tell me more ...
Where can we find your performance? Tell me more ...
Your comment:
Please, log in to post your performance.