Artists by letter: A B C D E F G H I J K L M N O P Q R S T U V W X Y Z 0-9
 
Problematic
[Chords]
 

       Intro              Verse           Phrase before and       Chorus                                or
                                          after the chorus                                            voiced 
     F  F6 Fmaj7 F6       Bb  Gm   Am    F F6 Fmaj7 F         F   F/A   Bb    Run       Dm  Dm/A  Bb    as
e|-----------0-------|----1---------0-----------0--1----------1----1-----1---------------5--------6----1---1|
B|---1---3---1---3---|----3----3----1-----1--3--1--1----------1----1-----3---------------6--------6----1---3|
G|---2---2---2---2---|----3----3----2-----2--2--2--2----------2----2-----3---------------7--------7----2---3|
D|---3---3---3---3---|----3----3----2-----3--3--3--3----------3----3-----3---------------7--------8----0---3|
A|---3---3---3---3---|----1---------0-----3--3--3--3----------3----0-----1---0--1--3-----5--------8------0-1|
E|---1---1---1---1---|---------3----------1--1--1--1----------1-------------------------------4---6---------|

                                                        
                                                          I mostly play everything (intro, verse, and bridge)
    Bridge            Musical Bridge                      in a clawing finger pattern.       
   Dm    C    G       Dm   C   C/Bb  or   or     Bb       Intro for example
e|--5----3----3--------5---3----------0-----------1-----------------------------------x----x-----------------|
B|--6----5----3--------6---5----5-----1----5------3---------x------x------x-----x-----x----x-----x-----x-----|
G|--7----5----4--------7---5----5-----0----5------3---------x------x------x-----x-----x----x-----x-----x-----|
D|--7----5----5--------7---5----5-----2----5------3---------x------x------x-----x----------------x-----x-----|
A|--5----3----5--------5---3----1-----1-----------1----------------------------------------------------------|
E|------------3----------------------------6--------------------x------x-----x-----x-----x----x-----x------x-|

                                    


Like I said, I play it mostly using a clawing finger pattern, so I don't hit every sting. For example, I 
sometimes don't even bother putting my finger on the C of the A String in the intro as shown. I gave the full
chords in case you want to play it another way. 





[Intro]

F   F6   Fmaj7   F6  x 2

[Verse]
F                 F6
One night I had a dream
         Fmaj7                       F6
that everything wasn't as bad as it seems
                 Bb      Gm
now I just wanna go back
             Bb          Am
I just wanna go back

F                  F6
Next day, I looked around
          Fmaj7                     F6
about as helpful as the dirt on the ground
                 Bb      Gm
now I just wanna go back
             Bb          Am
I just wanna go back

F   F6   Fmaj7   F


[Chorus]
F                      F/A
My guard is down and I feel pathetic
    Bb                                       F    F/A
The world's gone mad and I just don't get it
             Dm    Dm/A   Bb
I can't even try
F                 F/A
The TV's on but I just see static
Bb                                    Gm
and everything, feels so problematic
                     Bb
so I'll cry 'til you pull the wool back over my eyes

F   F6   Fmaj7   F


[Verse]
F                   F6
Two shots, into the crowd
            Fmaj7              F6
it all goes over my head like a cloud
                 Bb       Gm
now I just wanna go back
             Bb           Am
I just wanna go back


[Bridge]
Dm
Maybe this is deja vu
C
Maybe I can't see the fun
G                                  
Maybe it's just been a shit year for everyone
Dm                       C
Maybe I'm a coward being cryptic
   G
Or maybe this is all apocalyptic (apocalyptic, apocalyptic  oooo)


[Chorus]
F                      F/A
My guard is down and I feel pathetic 
    Bb                                       F    F/A
The world's gone mad and I just don't get it
             Dm    Dm/A   Bb
I can't even try
F                 F/A
The TV's on but I just see static
Bb                                   Gm
and everything, feels so problematic
                     Bb
so I'll cry 'til you pull the wool back over my eyes

Dm  C  Dm  C  C/Bb  Bb  C  Bb


[Bridge]
Dm
Maybe this is turbulence
C
Maybe it'll come and go
G
Maybe it's a secret that we can only dream to know
Dm                             C
Maybe it's all there for us to ignore
   G
or maybe I just need to learn to smile more

Dm
Maybe this is deja vu
C
Maybe I can't see the fun
G
Maybe it's just been a shit year for everyone
Dm                       C
Maybe I'm a coward being cryptic
   G
Or maybe this is all apocalyptic (apocalyptic, apocalyptic oooo)


[Chorus]
F                      F/A
My guard is down and I feel pathetic
    Bb                     Eb                  F   F/A
The world's gone mad and I just don't get it
             Dm    Dm/A   Bb
I can't even try
F                 F/A
The TV's on but I just see static
Bb                                   Gm
and everything, feels so problematic
                     Bb                              
so I'll cry 'til you pull the wool back over my eyes
                     

F  F6  Fmaj7  F6  F  F6  Fmaj7  F






I've been listening to the demo version released on Patreon. She hits a lone Eb during the last chorus. 








 
 
Orla Gartland - Problematic :: indexed at Ultimate Guitar.
Problematic tabs @ 911Tabs

Quick tip, so you can enjoy Problematic even more:

YourChords.com Guitar Chords and Tabs Archive is currently indexing over 240'000 songs from 21'000+ different artists. And new chords just keep on coming in, so you will surely never run out of them.

Show us your talent, perform Problematic!

Here you can post a video or audio performance. Tell me more ...
Where can we find your performance? Tell me more ...
Your comment:
Please, log in to post your performance.