Artists by letter: A B C D E F G H I J K L M N O P Q R S T U V W X Y Z 0-9

 
Fist Fight
Tuning: Standard

[Note]
Eb, Ab and B* and only played as bass notes!
I'm unsure aboout the lyrics in brackets,
so leave a comment if you find any misheard lyrics! :)

[Chords]
    E  Eb   A  Ab   C#m   B  B*
e|------------------------------|
B|--9---------------9-----------|
G|--9-------6-------9-----8-----|
D|--9-------7-------11----9-----|
A|--7--6----7-------11----9-----|
E|----------5--4----9-----7--7--|

[Chorus is played like this]
    E           Eb              Ab    A         Ab    A         Ab 
e|----------------------------------|---------------------------------|
B|--9-9-9-9-x-------9-9-9-9-x-------|---------------------------------|
G|--9-9-9-9-x-------9-9-9-9-x-------|-6-6-6-6-x-------6-6-6-6-x-------|
D|--9-9-9-9-x-------9-9-9-9-x-------|-7-7-7-7-x-------7-7-7-7-x-------|
A|--7-7-7-7-x---6---7-7-7-7-x-------|-7-7-7-7-x-------7-7-7-7-x-------|
E|----------x---------------x---4---|-5-5-5-5-x-4-----5-5-5-5-x-4-----|
    E           Eb              Ab    A         Ab    A         B*
e|----------------------------------|---------------------------------|
B|--9-9-9-9-x-------9-9-9-9-x-------|---------------------------------|
G|--9-9-9-9-x-------9-9-9-9-x-------|-6-6-6-6-x-------6-6-6-6-x-------|
D|--9-9-9-9-x-------9-9-9-9-x-------|-7-7-7-7-x-------7-7-7-7-x-------|
A|--7-7-7-7-x---6---7-7-7-7-x-------|-7-7-7-7-x-------7-7-7-7-x-------|
E|----------x---------------x---4---|-5-5-5-5-x-4-----5-5-5-5-x-7-----|
    C#m             B                 A               B
e|----------------------------------|---------------------------------|
B|--9--9--9--9--x-------------------|---------------------------------|
G|--9--9--9--9--x---8-8-8-8-x-------|-6-6-6-6-x-------8-8-8-8-x-------|
D|--11-11-11-11-x---9-9-9-9-x-------|-7-7-7-7-x-------9-9-9-9-x-------|2x
A|--11-11-11-11-x---9-9-9-9-x-------|-7-7-7-7-x-------9-9-9-9-x-------|
E|--9--9--9--9--x---7-7-7-7-x-------|-5-5-5-5-x-------7-7-7-7-x-------|
    E           Eb              Ab    A         Ab    B         Ab 
e|----------------------------------|---------------------------------|
B|--9-9-9-9-x-------9-9-9-9-x-------|---------------------------------|
G|--9-9-9-9-x-------9-9-9-9-x-------|-6-6-6-6-x-------8-8-8-8-x-------|
D|--9-9-9-9-x-------9-9-9-9-x-------|-7-7-7-7-x-------9-9-9-9-x-------|
A|--7-7-7-7-x---6---7-7-7-7-x-------|-7-7-7-7-x-------9-9-9-9-x-------|
E|----------x---------------x---4---|-5-5-5-5-x-4-----7-7-7-7-x-4-----|

[Verse 1]
E                               A
  Sometimes my face goes raging red
                               C#m
I can't believe the things you said
                              B
You turned to me just now and then
You said I did it again

[Verse 2]
E                                        A
  Now where's your conscience, stay more clear
                                    C#m
I want (the words) that you can('t) hear
                         B
You hit so far below the belt
          E
This pain demands to be felt

[Pre-Chorus]
B             E             A
  I'm sick of talking in my sleep
                       E       B
There's no one else to hear me out
            E                A
is this all it cracked up to be
                         B
it's time to figure out

[Chorus]    
           E   Eb  E                 Ab    A Ab A Ab 
and can it all be solved with a fist fight
        E  Eb  E                     Ab    A Ab A B*
or stay up and talk through the long night
          C#m   B          A    B
and you recycle sins, push me away
              C#m     B        A        B
but there's a part of you that makes me stay
           E   Eb  E                 Ab    A Ab B Ab 
and can it all be solved with a fist fight

[Interlude]
   E                           C#m                 A 
e|-----------------------------------------------------------------------|
B|-9-9-9-9---------------------------------------------------------------|
G|-9-9-9-9-----------------------------------------6---6-6---------------|
D|-9-9-9-9---------------------11-11-11-11---------7---7-7---------------|
A|-7-7-7-7-----6--7--9-/11-----11-11-11-11---------7---7-7---------------|
E|--------------------------7--9--9--9--9-------4--5---5-5---5-\4-\2-/4--|

   E                           C#m                 A           B
e|-----------------------------------------------------------------------|
B|-9-9-9-9---------------------------------------------------------------|
G|-9-9-9-9-----------------------------------------6---6-6---6/8---8-8---|
D|-9-9-9-9---------------------11-11-11-11---------7---7-7---7/9---9-9---|
A|-7-7-7-7-----6--7--9-/11-----11-11-11-11---------7---7-7---7/9---9-9---|
E|-0-0-0-0------------------7--9--9--9--9-------4--5---5-5---5/7---7-7---|

[Verse 3]
E                             A
My lord he's twisting into (mutts)
                           C#m
I should be happy you can (cough)
                             B
But now this feels so out of place
Who loves a slap in the face

[Verse 4]
E                                Ab  A
  These text book rules say talk it out
                             C#m
Well I came out here just to shout
                           B
And being hit with this we trolled
'Cause it went so far with it all

[Chorus] 
           E   Eb  E                 Ab    A Ab A Ab 
and can it all be solved with a fist fight
        E  Eb  E                     Ab    A Ab A B*
or stay up and talk through the long night
          C#m   B          A    B
and you recycle sins, push me away
              C#m     B        A        B
but there's a part of you that makes me stay
           E   Eb  E                 Ab    A Ab B
and can it all be solved with a fist fight

[Bridge]
C#m B A                       B
Oooooohh, do I wanna tell you all my secrets
C#m B A                          B
Oooooohh, you won't only get the taste of regret
C#m B A                       B
Oooooohh, do I wanna tell you all my secrets
C#m B E
Oooooohh

[Pre-Chorus]
B             E             A
  I'm sick of talking in my sleep
                               B
There's no one else to hear me out
            E                A
is this all it cracked up to be
                         B
it's time to figure out

[Chorus] 
           E   Eb  E                 Ab    A Ab A Ab 
and can it all be solved with a fist fight
        E  Eb  E                     Ab    A Ab A B*
or stay up and talk through the long night
          C#m   B          A    B
and you recycle sins, push me away
              C#m     B        A        B
but there's a part of you that makes me stay
           E   Eb  E                 Ab    A Ab B Ab 
and can it all be solved with a fist fight

[Outro]
   E                              A 
e|------------------------------------------5--|
B|-9-9-9-9----------------------------------5--|
G|-9-9-9-9----------------------------------6--|
D|-9-9-9-9----------------------------------7--|
A|-7-7-7-7-----6--6/7--6-6------------7-----7--|
E|--------------------------7--9--5------5-----|

 
 
Orla Gartland - Fist Fight :: indexed at Ultimate Guitar.
Fist Fight tabs @ 911Tabs

Quick tip, so you can enjoy Fist Fight even more:

If you don't really know how to deal with "Absus4" chord and his equally confusing brothers, just put the mouse cursor over them and you will be shown a helpful chord diagram.

Show us your talent, perform Fist Fight!

Here you can post a video or audio performance. Tell me more ...
Where can we find your performance? Tell me more ...
Your comment:
Please, log in to post your performance.