Artists by letter: A B C D E F G H I J K L M N O P Q R S T U V W X Y Z 0-9

 
Weakness Live
Transcribed by Jonas Svarholt
Email: jonas.gitarrlektioner@gmail.com

Lyrics:

Found you there in the blink of an eye
(I) miss you
Turned away into a thousand dreams
Found out what they mean

Lost you there in a moment of truth
(I) trust you
Gave away the one and only heart
(A) gift to tear apart

Stain me, save me
Take me to my home
Hold me, show me
Take me to my home

Weaker now, drawing fluid from me
(You) kill me
I'm not afraid of what you have just done
(But of) what you've just become


*Fender Rhodes*
Riff 1(intro and verse):

e|----------------------------3-----3----------------------------------------|
B|-----5---5--5--5--5--5/4------3--------------------------------------------|
G|---4---4------------------------5------------------------------------------|
D|---------------------------------------------------------------------------|
A|--------------------------4-----3------------------------------------------|
E|-0-------------------------------------------------------------------------|


*Fender Rhodes*
Riff 2:

e|-------------------3---------------3---------------------------------------|
B|-----5-------5-----------3----3------3-------------------------------------|
G|---4---4---4---4-------0---------------0-----------------------------------|
D|---------------------0-----------------------------------------------------|
A|---------------------------------------------------------------------------|
E|-0-------0-------0----------3----3-----------------------------------------|


Clean E-Guitar w/ Reverb and Delay:
(played during Riff 2)

e|---------------------------------------------------------------------------|
B|-7-7-7-7-7h8---7-7-7-7-8-5--7-7-7-7-7---7-7-7-7-7-8-8/10-------------------|
G|-------------4------------------------4------------------------------------|
D|---------------------------------------------------------------------------|
A|---------------------------------------------------------------------------|
E|---------------------------------------------------------------------------|

*Fender Rhodes*
Riff 3 ("stain me, save me..."):

e|---0h1---------------------------------------------------------------------|
B|-------1-3----3-------3----------------------------------------------------|
G|--------------2-----2-2----------------------------------------------------|
D|-0-------------------------------------------------------------------------|
A|------------0--------------------------------------------------------------|
E|------------------1--------------------------------------------------------|


Song order:

Riff 1 x 6 times
Riff 2 x 4 times
Riff 3 x 4 times
Riff 1 x 6 times
Riff 2 x 5 times
Riff 3 x 8 times
Riff 4 x 4 times

************************************

 h   Hammer-on
 /   Slide up

************************************
 
 
 
Opeth - Weakness Live :: indexed at Ultimate Guitar.
Weakness Live tabs @ 911Tabs

About the artist behind Weakness Live:

Opeth is a Swedish heavy metal band that formed in 1990 in Stockholm. While the band has been through several personnel changes, singer, guitarist, and songwriter Mikael Ã…kerfeldt has remained Opeth's driving force since joining shortly after its inception.

While firmly rooted in Scandinavian death metal, Opeth has consistently incorporated influence by progressive music, folk, blues rock and jazz into their usually lengthy songs. Many compositions include acoustic guitar parts and strong dynamic shifts, as well as both growling and clean vocals. Though they rarely toured in support of their first four albums, Opeth conducted their first world tour after the 2001 release of Blackwater Park.

Opeth has released nine studio albums, two live albums, one box set, and one DVD. The band released its debut album Orchid in 1995, but did not experience American commercial success until the 2003 release of seventh effort Damnation which debuted at number 192 on the Billboard 200. Opeth's ninth studio album, Watershed, was released on June 3, 2008 and debuted at number 23 .

Indexed at Wikipedia.

Show us your talent, perform Weakness Live!

Here you can post a video or audio performance. Tell me more ...
Where can we find your performance? Tell me more ...
Your comment:
Please, log in to post your performance.