Artists by letter: A B C D E F G H I J K L M N O P Q R S T U V W X Y Z 0-9

 
Sorceress 2
Transcribed by Jonas Svarholt
Email: jonas.gitarrlektioner@gmail.com


[Intro]
e|---5-------7-------5-------7-------5-------7-----7-----8-----8---|
B|-----0-------0-------0-------0-------0-------0-----0-----0-------|
G|-------5/7-----7-------5/7-----7-------5/7----/8-----/9----9---9-|
D|-----------------------------------------------------------------|
A|-0---------------0---------------0-------------------------------|
E|-----------------------------------------------------------------|

e|-----------------------------------------------------------------|
B|-8---5---3---1---0-----------------------------------------------|
G|---0---0---0---0---0-2-------------------------------------------|
D|-----------------------3-----------------------------------------|
A|-7---3---2---0---------------------------------------------------|
E|-----------------3---1-------------------------------------------|

[Verse]
e|-----------------------------------------------------------------|
B|---------4-----5p4----------------7-----8p7----------------------|
G|-----6-----6-------6----------9-----9-------9--------------------|
D|---7---7-----7-------7------7---7-----7-------10-----------------|
A|-0---------------------0--0----------------------0---------------|
E|-----------------------------------------------------------------|

[Chorus]
e|---------5-----3-----2-----0--------------2-------------2--------|
B|-----3-----3-----3-----3-----3--------2-----2-------2-----2------|
G|---2---2-----2-----0-----0-----3----2---2-----2---2---2-----2----|
D|-0--------------------------------0-------------0-------------0--|
A|-----------------------------------------------------------------|
E|-----------------------------------------------------------------|

e|-----------------------------------------------------------------|
B|---------3--------------3-----------------2---2h3-3/5------------|
G|-----0-----0--------0-----0-----------2-----2--------------------|
D|---0---0-----0----3---3-----3---3---2---2------------------------|
A|----------------1-------------1---0------------------------------|
E|-3---------------------------------------------------------------|

[Ending lick]
e|------------5-3h5p3/2---2-0---0--------------2-------------------|
B|-5/-------3-----------5-----3---------------3--------------------|
G|--------2-----------------------2-0--------2---------------------|
D|------0-------------------------------4---0----------------------|
A|------------------------------------5----0-----------------------|
E|-----------------------------------------------------------------|
 

************************************

| /  Slide up
| p  Pull-off
| h  Hammer-on

************************************
 
 
 
Opeth - Sorceress 2 :: indexed at Ultimate Guitar.
Sorceress 2 tabs @ 911Tabs

About the artist behind Sorceress 2:

Opeth is a Swedish heavy metal band that formed in 1990 in Stockholm. While the band has been through several personnel changes, singer, guitarist, and songwriter Mikael Ã…kerfeldt has remained Opeth's driving force since joining shortly after its inception.

While firmly rooted in Scandinavian death metal, Opeth has consistently incorporated influence by progressive music, folk, blues rock and jazz into their usually lengthy songs. Many compositions include acoustic guitar parts and strong dynamic shifts, as well as both growling and clean vocals. Though they rarely toured in support of their first four albums, Opeth conducted their first world tour after the 2001 release of Blackwater Park.

Opeth has released nine studio albums, two live albums, one box set, and one DVD. The band released its debut album Orchid in 1995, but did not experience American commercial success until the 2003 release of seventh effort Damnation which debuted at number 192 on the Billboard 200. Opeth's ninth studio album, Watershed, was released on June 3, 2008 and debuted at number 23 .

Indexed at Wikipedia.

Show us your talent, perform Sorceress 2!

Here you can post a video or audio performance. Tell me more ...
Where can we find your performance? Tell me more ...
Your comment:
Please, log in to post your performance.