Artists by letter: A B C D E F G H I J K L M N O P Q R S T U V W X Y Z 0-9

 
Handmade Home
Capo on 1st fret

[Intro]
Em A C D G

e|-------------------------|
B|-------------------------|
G|-------------------------|
D|-----------0--0----------|
A|-0h1--1h2--------3--2--0-|
E|-------------------------|

G

[Verse]
G                 C                 G                  D
Kiniro no sora, kuroi mangetsu, haribote no sut"ji, tedzukuri no yoru
   G                  C             G       D       G
Daisuki na akuma to hikisakare, ōji-sama to kisu wo shita

e|-------------------------|
B|-------------------------|
G|-------------------------|
D|-----------0--0----------|
A|-0h1--1h2--------3--2--0-|
E|-------------------------|

G             C                   G                C         D
Awai mizuiro, usui panfuretto, chotto taka sugiru, ki mo surukeredo
 G               C               G        D        C  D    G
Akuma no hito ga uttetakara, katchatta ufufu, shigoto ganbaru

[Chorus]
G        D       C   D     G   Em         A        C
Mainichi mo tedzukurida yo ne, nikki o kaite, hana wo kazatte
G          D         C     D     G  Em      A         C    D    G
Yoru ga akete mata yoru ga kite mo, daisuki na uta de yume wo miru
Em       A        C   D    G
Handmade city and handmade home

e|-------------------------|
B|-------------------------|
G|-------------------------|
D|-----------0--0----------|
A|-0h1--1h2--------3--2--0-|
E|-------------------------|

[Bridge]
G C
G C D
G C
G D C D G

[Verse]
G                 C                G                C
Dasei no niban, kimi ga ichiban, kirai na kotoba wo watashi utaitai
  G               C                  G        D    C   D  G
Kimochi wo osaete dekirudake, tanoshiku surukara kirawanaide

[Chorus]
G        D    C     D G   Em   A      C       D
Mainichi mo dōkashi sōde, demo aidoru datte waratterushi
  G      D      C     D   G     Em     A       C    D     G
Chotto dake dōnika shiyou ne, mainichi wa tedzukuri da yo ne
  G      D       C    D     G        Em    A        C       D
Mainichi wa tedzukuri da yo ne, gitā wo hiite, kimi wo kazatte
   G       D          C    D    G     Em    A         C    D    G
Yoru ga akete mata yoru ga kite mo, daisuki na uta de yume wo miru
Em       A        C   D    G
Handmade city and handmade home

e|-------------------------|
B|-------------------------|
G|-------------------------|
D|-----------0--0----------|
A|-0h1--1h2--------3--2--0-|
E|-------------------------|

[Outro]
G C
G D
G C
G D C D G
G
C
G
D C D
G
C
G C
G D G
 
 
Oomori Seiko - Handmade Home :: indexed at Ultimate Guitar.
Handmade Home tabs @ 911Tabs
People who played Oomori Seiko - Handmade Home also played these songs by Oomori Seiko:
Handmade Home Chords

Quick tip, so you can enjoy Handmade Home even more:

YourChords.com Guitar Chords and Tabs Archive is currently indexing over 240'000 songs from 21'000+ different artists. And new chords just keep on coming in, so you will surely never run out of them.

Show us your talent, perform Handmade Home!

Here you can post a video or audio performance. Tell me more ...
Where can we find your performance? Tell me more ...
Your comment:
Please, log in to post your performance.