Artists by letter: A B C D E F G H I J K L M N O P Q R S T U V W X Y Z 0-9
 
Enola Gay Acoustic
Standard Tuning EADGBe 


Intro/Verse progression: F Dm Bb C


e|-1--1-0-1--1-0--1--1-0-1--3-0-|-1--1-0-1--1-0--1--1-0-1--3-0-|
B|-1----------------------------|-3----------------------------|
G|-2----------------------------|-2----------------------------|
D|-3----------------------------|-0----------------------------|
A|-3----------------------------|------------------------------|
E|-1----------------------------|------------------------------|

e|-1--1-0-1--1-0--1--1-0-1--3-0-|-1--1-0-1--1-0--1--1-0-1--3-0-|
B|-3----------------------------|-1----------------------------|
G|-3----------------------------|-0----------------------------|
D|-3----------------------------|-2----------------------------|
A|-1----------------------------|-3----------------------------|
E|------------------------------|------------------------------|


Main riff: 

  F                                  Dm

e|-----5-6-8-6-5-------5-6-8-6-5--|-------3-5-3-----------5-3------|
B|-6-6-----------6---6------------|-3-3-6-------6-3---3-6------6---|
G|--------------------------------|--------------------------------|
D|--------------------------------|--------------------------------|
A|--------------------------------|--------------------------------|
E|--------------------------------|--------------------------------|

  Bb                                C

e|--------------------------------|--------------------------------|
B|-----3-4-6-4-3-------3-4-6-4-3--|-----5-6-8-6-5-------5-8-6--5---|
G|-3-3-----------3---3------------|-5-5-----------5---5------------|
D|--------------------------------|--------------------------------|
A|--------------------------------|--------------------------------|
E|--------------------------------|--------------------------------|


-or-

   
   F                                  Dm

e|----------------------------------|------------------------------------------|
B|----------------------------------|------------------------------------------|
G|----------------------------------|------------------------------------------|
D|------7-8-10-8-7-------7-8-10-8-7-|------------------------------------------|
A|--8-8------------8---8------------|--------8-10-12-10-8---------8-10-12-10-8-|
E|----------------------------------|--10-10--------------10---10--------------|

   Bb                                  C 

e|----------------------------------|----------------------------------|
B|----------------------------------|----------------------------------|
G|----------------------------------|----------------------------------|
D|----------------------------------|----------------------------------|
A|------5-6-8-6-5-------5-6-8-6-5---|------7-8-10-8-7------7-8-10-8-7--|
E|--6-6-----------6---6-------------|--8-8------------8--8-------------|





Verse 1: 

  F                                       Dm
Enola gay, you should have stayed at home yesterday 
          Bb                                 C
Aha words can't describe the feeling and the way you lied 

       F                                             Dm
These games you play, they're gonna end it more than tears someday 
    Bb                                   C
Aha enola gay, it shouldn't ever have to end this way 


[Main riff]


Verse 2: 

     F                                   Dm
It's 8:15, and that's the time that it's always been 
                           Bb                                  C
We got your message on the radio, conditions normal and you're coming home 


[Instrumental break over verse chords x2]


Verse 3: 

  F                                  Dm
Enola gay, is mother proud of little boy today 
         Bb                                   C
Aha this kiss you give, it's never ever gonna fade away 


[Instrumental break over verse chords x2]

[Main riff]


Verse 4: 

  F                                  Dm
Enola gay, it shouldn't ever have to end this way 
     Bb                                 C
Aha enola gay, it shouldn't fade in our dreams away 

     F                                   Dm
It's 8:15, and that's the time that it's always been 
                           Bb                                  C
We got your message on the radio, conditions normal and you're coming home 

  F                                  Dm
Enola gay, is mother proud of little boy today 
         Bb                                   C
Aha this kiss you give, it's never ever gonna fade away 


(end)




 
 
Omd - Enola Gay Acoustic :: indexed at Ultimate Guitar.
Enola Gay Acoustic tabs @ 911Tabs
People who played Omd - Enola Gay Acoustic also played these songs by Omd:
If You Leave Chords, Enola Gay Chords, Maid Of Orleans Tab, Joan Of Arc Chords, If You Leave Chords, Walkin On The Milky Way Chords

Quick tip, so you can enjoy Enola Gay Acoustic even more:

YourChords.com Guitar Chords and Tabs Archive is currently indexing over 240'000 songs from 21'000+ different artists. And new chords just keep on coming in, so you will surely never run out of them.

Show us your talent, perform Enola Gay Acoustic!

Here you can post a video or audio performance. Tell me more ...
Where can we find your performance? Tell me more ...
Your comment:
Please, log in to post your performance.