Artists by letter: A B C D E F G H I J K L M N O P Q R S T U V W X Y Z 0-9

Endless A Silent Whisper Chords (ver 2) - Urban Dub

 
Endless A Silent Whisper Chords
Title		: Endless, A silent Whisper
Artist		: Urbandub
Album		: Embrace

Ear Tabber	: Walter Michael De la Cruz
Email add 1	: Walterfdelacruz@yahoo.com
Email add 2	: Michaelfdelacruz@yahoo.com
Email add 3	: WalterKarla1724@yahoo.com

School		: Saint Louis University BAguio City
DAte of tab	: June 23,2006



---------------
STANDARD TUNING|
---------------

I really love the SOng. Medyo Parang Love song SIya Pero Rock.
Asteeeg! Power chords lang gamitin nyo dito.


-------
Intro 1|
-------


Guitar 1: Lead Guitar

e|-7-7-7-7-7-7-7-7-7-|-7-7-7-7-7-7-7-7-7-7-7-7-7-7-7-|
B|-------------------|-------------------------------|
G|-------------------|-------------------------------|
D|-------------------|-------------------------------|  
A|-------------------|-------------------------------|
E|-------------------|-------------------------------|


Guitar 2: Rhythm guitar(clean)

e|-------------------|-------------------------------|
B|-------------------|-------------------------------|
G|-------------------|-------------------------------|
D|-------------------|-6-6-6-6-6-6-6-6-6-6-6-6-6-6-6-|  
A|-------------------|-6-6-6-6-6-6-6-6-6-6-6-6-6-6-6-|
E|-------------------|-4-4-4-4-4-4-4-4-4-4-4-4-4-4-4-|


Guitar 1: Lead Guitar

e|-777777777777777--|-666666666/777/9999-------------|
B|------------------|--------------------------------|
G|------------------|--------------------------------|
D|------------------|--------------------------------|  
A|------------------|--------------------------------|
E|------------------|--------------------------------|

Guitar 2: Rhythm guitar(clean)

e|------------------|------------------------------|
B|------------------|------------------------------|
G|------------------|-3X4X3X4X3X4X3X4X-------------|
D|-8X9X8X9X8X9X8X9--|-6X6X6X6X6X6X6X6X-------------|  
A|-6X6X6X6X6X6X6X6--|-4X4X4X4X4X4X4X4X-------------|
E|-4X4X4X4X4X4X4X4--|------------------------------|


Guitar 1: Lead Guitar

e|------------------|--------------------------------|
B|-999999999777555|-44444444444--0-----------------|
G|------------------|--------------------------------|
D|------------------|--------------------------------|  
A|------------------|--------------------------------|
E|------------------|--------------------------------|


Guitar 2: Rhythm guitar(clean)

e|------------------|------------------------------|
B|------------------|------------------------------|
G|------------------|-3X4X3X4X3X4X3X4X-------------|
D|-8X9X8X9X8X9X8X9--|-6X6X6X6X6X6X6X6X-------------|  
A|-6X6X6X6X6X6X6X6--|-4X4X4X4X4X4X4X4X-------------|
E|-4X4X4X4X4X4X4X4--|------------------------------|

-------
Intro 2| G#m-C#m;2x
-------


-------
Verse 1|
-------
                         
    G#m              C#m(fast release)-C#m         
The night belongs to us,

                     G#m
Were caught in the world

                            C#m        
of our own we cling to the hope it would change for us


-------
Verse 2| (Medyo may pagka reggae yung strumming dito)
-------

           G#m                          C#m
Is it in vain?,or is it to late why did it have to be you than I?

-------
REfrain|
-------

E                   B
i heard the news today

-------
Chorus |
-------

B                       
  Is this the beginning of our last dance?

G#m
  Once around the floor can we do it again

Em                               C#m
  i feel the thrill from words we say  I love you


  
-------
Verse 3|
-------


   G#m                                 C#m
Embrace so much tighter this could our last together

               G#m                                         
heaven shed`s tears for the wounded hearts 

       C#m
Our forever has been torn apart



---------
REfrain 2|
---------

     E                   F#                G#m                   B                          
our vast religion wont help us answer what was pre-destined for us to have

        E                       Em                 B      
since long ago is hopeless the world it turns with us

             G#m                      Em          
hold me in closer and dont let of me now we close our eyes and let go

                B-G#m                          
through the night

       Em
the night we feel alive.


-------
Chorus |
-------

B                       
  Is this the beginning of our last dance?

G#m
  Once around the floor can we do it again

Em                               C#m
  i feel the thrill from words we say  I love you


Outro: G#m-C#m



For comments send me a message in Friendster. 

E-mail add 1: Walterfdelacruz@yahoo.com
E-mail add 2: Michaelfdelacruz@yahoo.com 

And u Can also add me as your friend Or send me a testimonial.hehehe
God bless!


Thanks.
Rock oUt.
Walter Rocks Ultimate Guitar!
 
 
 
 
 

Tablature player for this song:
 
 
Urban Dub - Endless A Silent Whisper Chords :: indexed at Ultimate Guitar.
Endless A Silent Whisper tabs @ 911Tabs
People who played Urban Dub - Endless A Silent Whisper Chords also played these songs by Urban Dub:
Evidence Chords, Gravity Chords, The Fight Is Over Chords, Give Chords, Guillotine Chords, A Call To Arms Chords, Frailty Chords, A New Tattoo Chords

Quick tip, so you can enjoy Endless A Silent Whisper Chords even more:

If you don't really know how to deal with "Absus4" chord and his equally confusing brothers, just put the mouse cursor over them and you will be shown a helpful chord diagram.

Show us your talent, perform Endless A Silent Whisper Chords!

Here you can post a video or audio performance. Tell me more ...
Where can we find your performance? Tell me more ...
Your comment:
Please, log in to post your performance.