Artists by letter: A B C D E F G H I J K L M N O P Q R S T U V W X Y Z 0-9

 
Takipsilim Tab
TITLE:     Takipsilim
ARTIST:    Callalilly
ALBUM:     Destination
DURATION:  05:07
TRACK NO.: 07
TABBED BY: Ronell Reyes
Place    : Pateros Metro Manila
Age      : 19
Email Add: hitokiri_battousai_o8@yahoo.com - yung o8, letter o yun, hindi number 0. Okay?
Blog site: ronells-world.blogspot.com
ContaCT #: 09192815166
why?     : Kunwari magaling ako! Pampam!
Date     : December 21, 2006 - 11:18:05 PM



###############################################
##        Takipsilim - callalilly            ##
###############################################

=================================================
=@@@@@@@@@@@@@@@@@@@@@@@@@@@@@@@@@@@@@@@@@@@@@@@=
=@                                             @=
=@  ## ## ####  ####   ###  ###### #### ####   @=
=@  ## ## ## ## ## ## ## ##   ##   ##   ## ##  @=
=@  ## ## ## ## ## ## ## ##   ##   #### ## ##  @=
=@  ## ## ####  ## ## #####   ##   ##   ## ##  @=
=@  ## ## ##    ## ## ## ##   ##   ##   ## ##  @=
=@   ###  ##    ####  ## ##   ##   #### ####   @=
=@                                             @-
=@         February 03, 2007 - 01:31 PM        @-
=@                                             @=
=@@@@@@@@@@@@@@@@@@@@@@@@@@@@@@@@@@@@@@@@@@@@@@@=
=================================================

*Kung di dahil sa mga nagtext, di ko maaalalang baguhin to... hehe..
sa inyo, na sumisita sa ka engotan ko, maraming salamat.. ^_^x
pagpalain kayo ng diyos ng mga gitara, rock on!!!

bale mali yung chord ko ng A2 sa diagram..
hindi ko alam kung pano naging A:x77620 and dapat eh A:x77600..
siguro dahil sa groge na ko habang kumakapa dahil inabot ako ng umaga
kakagawa nito..

sabi nga nung nagtext, di nya raw alam kung pano aabutin yung two..
sa iyo, at sa mga pinilit abutin ang 2nd fret mula 7th & 6th, pasenxa na po..
sabog lang.. naway walang pumutol ng daliri o kaya'y nanghiram ng isang daliri
sa mga kaibigan para tapakan ang pesteng 2nd fret.. pasenxa na po uli..

isa pa, yung plucking bago matapos, yung solo ni kean and guitar plucking,
di lahat may plucking.. hindi ko rin alam kung pano ko narinig yun
dahil sabay sabay na ang electric, bass, drums at singer..

minsan napagisip isip ko.. talaga bang pag groge ka na, nakakarinig ka
ng mga bagay bagay?!? palagay ko nga..

alam ko narin kung pano nila ginagawa yung sa bass.. heheh..
slide pala yun.. bwahehehe... kala ko mga effects-effects..

binago ko narin yung outro plucking.. please check it out nalang.. bwahehehe..

PLEASE PAKI RATE!!!

############################################################################################

Another sure-hit from Callalilly. This is my Second time to tab a song from Callalily.. 
My first work is Magbalik, another super-lupit-to-the-highest-level song from their album..
Hope you'll like my work.. if there's anything fishy or kinda suspicous,
sheeeeet smelling piece on my work, please feel free to disturb me... teehee..

PLEASE RATE MY WORK!!! THANKS!!! ^_^x

OPEN CHORDS:

    A2   G#m    B    F#m
E|--0--|--0--|--0--|--0--|
B|--0--|--0--|--0--|--0--|
G|--6--|--4--|--4--|--2--|
D|--7--|--6--|--4--|--4--|
A|--7--|--6--|--2--|--4--|
E|--x--|--x--|--x--|--x--|


############################
##         INTRO          ##
############################

*may heart beat.. bahala na kayo dun.. 5 times tapos biglang
pasok ang rythm guitar..


    A2   G#m
E|--0--|--0--|
B|--0--|--0--|
G|--6--|--4--|  2 times
D|--7--|--6--|
A|--7--|--6--|
E|--x--|--x--|
 
biglang may isang pluck ng bass, ito yun.. hindi ko
alam kung pano nila ginagawa yung mga pa-epek na ganun
pero sure ako na eto yun.. 

BASS:
E|-----|
B|-----|  UPDATE:
G|-----|  SLIDE PALA YUN.. HEHE.. SLIDE SA MULA 5
D|-----|  HANGGANG ONE.. 
A|-----|
E|-5s1-|



tapos intro uli, pero may bass na..

    A2   G#m
E|--0--|--0--|
B|--0--|--0--|
G|--6--|--4--|  2 times
D|--7--|--6--|
A|--7--|--6--|
E|--x--|--x--|

BASS:
    A2    G#m  A2    G#m
E|-----------------------|
B|-----------------------|
G|-----------------------|
D|-----------------------|
A|-----------------------|
E|-5555--4444-5555--4444-|

*Pakinggan nyo nalang yung song para makuha nyo yung
right timing sa pagkalabit ng bass.. otei?

############################
##         VERSE I        ##
############################

A2               g#m
   ilang hakbang papalayo
A2                    g#m
   sa bawat singhot ako'y napapaso
A2                g#m
   hinahanap ka na ng langit
       A2    g#m
san kita itatago?

BASS:
    A2    G#m 
E|------------|
B|------------|
G|------------| *4 times..
D|------------|
A|------------|
E|-5555--4444-|

############################
##        CHORUS          ##
############################

A2             g#m
   ang buhay di mahalaga
       A2              g#m
kung ikaw, hindi makakasama
        A2         g#m
walang ibang idadalangin
          f#m
oh diyos ko
B                      A2 - G#m (2X)
   wag kang agawin sa akin


BASS:
    A2    G#m                       F#m         B
E|--------------------------------|---------------|
B|--------------------------------|---------------|
G|-------------3times to.. then..-|---------------|
D|--------------------------------|---------------|
A|--------------------------------|-------------2-|
E|-5555--4444---------------------|-22222222------|


==============================
DO VERSE CHORDS: A2 - G#m (2x)
==============================

############################
##        VERSE II        ##
############################

A2            G#m
   kislap ng iyong mga mata
A2               G#m
   ang siyang nagbibigay ng kulay
A2                g#m
   mga bulong ng hangin na naguugnay
A2                G#m
sayo at sa aking buhay


BASS:
    A2    G#m 
E|------------|
B|------------|
G|------------| *4 times..
D|------------|
A|------------|
E|-5555--4444-|

############################
##        CHORUS          ##
############################

A2             g#m
   ang buhay di mahalaga
       A2              g#m
kung ikaw, hindi makakasama
        A2         g#m
walang ibang idadalangin
          f#m
oh diyos ko
B                      A2 - G#m (2X)
   wag kang agawin sa akin

BASS:
    A2    G#m                       F#m         B
E|--------------------------------|---------------|
B|--------------------------------|---------------|
G|-------------3times to.. then..-|---------------|
D|--------------------------------|---------------|
A|--------------------------------|-------------2-|
E|-5555--4444---------------------|-22222222------|


=========================================
*May lead na na papasok pagdating ng
chorus part na to.. pero mahina..
tapos palakas lang ng palakas..
SABAY NGA PALA ANG BASS AND LEAD OWKEI?!?
=========================================

LEAD:
E|---------|    E|---------|
B|---------|    B|--5-4----|
G|--9-8----| or G|------4--|
D|------9--|    D|---------|
A|---------|    A|---------|
E|---------|    E|---------|

=========================================
Kahit ano sa dalawa pede gamitin.. kung
ano mas hiyang sa inyo, yung gamitin mo..
paulit-ulit yan hanggang sa matapos ang
chorus.. tapos adlib na!!!!! yahooo!!!!
Paborit part sa mga kanta!!!
=========================================

############################
##         ADLIB          ##
############################

=====================================
DO VERSE/CHORUS CHORDS: A2 - G#m (2x)
=====================================

=====================================
*Eto na ang adlib tab ng kanta..
pagpasensyahan nyo na kung di nyo
maintindihan.. bobo ako magpaliwanag..
at acoustic guitar ang gamit ko..
pero pwede na!!! bwahahahah!!!!
...................................
....................Actually...

Para syang BASS.. hehe... o BASS talaga?!
BASS NGA.. SABI KO NGA!!!?
=====================================

BASS SOLO:
    A2                      G#m
E|---------------------------------------------|
B|---------------------------------------------|
G|---------------------------------------------|
D|---------------------------------------------|
A|------------4---4-4-4h6-4--------------------|
E|--4s5--7-7----------------4---4-4-4---4-4-4--|

    A2                        G#m
E|-----------------------------------------------|
B|-----------------------------------------------|
G|-----------------------------------------------|
D|-----------------------------------------------|
A|--------------4---4-4-4h6-4--------------------|
E|--4-4s5--7-7----------------4-4-4-4---4-4-4-4--|

=====================================
*Bale sarili kong style ng pag-pluck
ng bass to.. hindi ko na kasi marinig
kung anu yung tamang bilang ng pag-pluck..
magsabay ba naman ang rythm, bass, drums?!
Lagyan nyo na lang ng style yung pagpluck..
=====================================

############################
##         BRIDGE         ##
############################

F#m           G#m
  at sa yong paglayo
F#m                     G#m
   tangay tangay mo ang buhay ko
f#m                   G#m
   sa bawat pintig ng puso ko
        f#m-B - ( isang strum lang na pababa ang B )
aking dalangin

wag kang agawin sa akin

BASS:
    F#m    G#m
E|---------------|
B|---------------|
G|---------------| 3 times to...
D|---------------| 
A|---------------|
E|--2x16---4x16--|

LEAD:
E|---------|    E|---------|
B|---------|    B|--5-4----|
G|--9-8----| or G|------4--| Pagdating na pagdating ng bridge, pasok din to..
D|------9--|    D|---------|
A|---------|    A|---------|
E|---------|    E|---------|

then..
    F#m      B
E|--------------|
B|--------------|
G|--------------|
D|--------------| 
A|-----------2--|
E|--22222222----|



=======================================
DO THIS CHORDS WITH BASS: A2 - G#m (2x)
=======================================
BASS:
    A2    G#m 
E|------------|
B|------------|
G|------------| *2 times..
D|------------|
A|------------|
E|-5555--4444-|

############################
##         CHORUS         ##
############################

============================
Solo Plucking na to eh..
============================

    A2            G#m           A2            G#m           A2
E|------0-----0-------0-----0-------0-----0-------0-----0-------0-----0----|
B|--------0-----0-------0-----0-------0-----0-------0-----0-------0-----0--|
G|-------------------------------------------------------------------------|
D|----7-----7-------6-----6-------7-----7-------6-----6-------7-----7------|
A|-------------------------------------------------------------------------|
E|--5-------------4-------------5-------------4-------------5--------------|
         Buhay..  Mahalaga..    Ikaw..     ..sama..         ibang..    
    

=================================================
*pasok ang bass, elctric, drums..
=================================================

Guitar 2:
    G#m
E|------0-----0-----0-----0-----0----|
B|--------0-----0-----0-----0-----0--|
G|-----------------------------------|
D|----6-----6-----6-----6-----6------|
A|-----------------------------------|
E|--4--------------------------------|
 ..laNgin             Oh..  diyos 



Guitar 1:
    F#m
E|--0-0-0-0-0-0-0-0--|
B|--0-0-0-0-0-0-0-0--|
G|--2-2-2-2-2-2-2-2--|
D|--4-4-4-4-4-4-4-4--|
A|--4-4-4-4-4-4-4-4--|
E|-------------------|
  ..ko   

Guitar 1:
    F#m
E|--0-0-0-0-0-0-0-0--|
B|--0-0-0-0-0-0-0-0--|
G|--4-4-4-4-4-4-4-4--|
D|--4-4-4-4-4-4-4-4--|
A|--2-2-2-2-2-2-2-2--|
E|-------------------|

      Wag kang agawin sa akin..

Guitar 1:
    F#m                G#m
E|--0-0-0-0-0-0-0-0--|--0-0-0-0-0-0-0-0--|
B|--0-0-0-0-0-0-0-0--|--0-0-0-0-0-0-0-0--|
G|--2-2-2-2-2-2-2-2--|--4-4-4-4-4-4-4-4--|  3times..
D|--4-4-4-4-4-4-4-4--|--6-6-6-6-6-6-6-6--|
A|--4-4-4-4-4-4-4-4--|--6-6-6-6-6-6-6-6--|
E|-------------------|-------------------|
    gagawin...          Wag kang agawin..
    
Then..

Guitar 1:
    F#m                G#m
E|--0-0-0-0-0-0-0-0--|--0--|
B|--0-0-0-0-0-0-0-0--|--0--|
G|--2-2-2-2-2-2-2-2--|--4--|
D|--4-4-4-4-4-4-4-4--|--6--|
A|--4-4-4-4-4-4-4-4--|--6--|
E|-------------------|-----|
    Gagawin ang lahat                  

Guitar 2:
E|----------0----0-----------|
B|----------0----0-----------|
G|----------2----4-----------|
D|----------4----4-----------|
A|----------4----2-----------|
E|----------0----0-----------|
  Oh diyos ko..     Wag kang agawin sa akin..

Tapos do A2 - G#m chords 2times.. end sa A na one downward strum..


Tapos na!!!!

=======================================
*tapos heartbeat ulit.. then plucking.. 
=======================================

############################
##     OUTRO PLUCKING     ##
############################

=======================================
Di ako sure dun sa isang part.. ( As ussual...)
kasi may pesteng bass na pumapasok.. pero katunog
parin.. hehe.. 
=======================================

E|-----------------------------------|
B|------8-----8-----8-----8-----8----|
G|----7---7-----7-----7-----7-----7--|
D|--5-------5-----5-----5-----5------|
A|-----------------------------------|
E|-----------------------------------|


E|-----------------------------------|
B|------8-----8-----8-----8-----8----|
G|----7---7-----7-----7-----7-----7--|
D|--4-------4-----4-----4-----4------|
A|-----------------------------------|
E|-----------------------------------|


E|-----------------------------------|
B|------8-----8-----8-----8-----8----|
G|----7---7-----7-----7-----7-----7--|
D|-----------------------------------|
A|--7-------7-----7-----7-----7------|
E|-----------------------------------|

E|-----------------|-----------------|
B|-----------------|-----------------|
G|--5---5-4---4----|--5---5-4---4----| Eto, mas sure ako kesa sa dati..
D|----5-----5---7--|----5-----5---7--| mas katunog yan!!! bwahehehe.. cool!
A|-----------------|-----------------|
E|-----------------|-----------------|


Times two po yan... lam nyo bang parang intro yan ng sanctuary..
yun naman po ang isusunod ko..hehe.. please paki rate po.. salamat...

Binura ko na yung decication.. echos lang yun.. bwahehehehe!!!
sa mga tumingin nito at gumagamit, salamat po ng marami.. 
please support OPM Bands and please buy ORIGINAL CD's wag yung tatlo isandaan ok?!

text me 09192815166 and add me sa friendster.. hitokiri_battousai_o8@yahoo.com

 
 
Callalily - Takipsilim Tab :: indexed at Ultimate Guitar.
Takipsilim tabs @ 911Tabs
People who played Callalily - Takipsilim Tab also played these songs by Callalily:
Stars Chords, Magbalik Chords, Gabay Chords, Susundan Chords, Stars Acoustic Chords, Pasan Chords, Nananaginip Chords, Hintay Chords

About the artist behind Takipsilim Tab:

Callalily is a Filipino pop-rock band, composed of Kean Cipriano (Vocals), Alden Acosta (Lead Guitar), Tatsi Jamnague (Rhythm Guitar), Aaron Ricafrente (Bass) and Lemuel Belaro (Drums).

Indexed at Wikipedia.

Show us your talent, perform Takipsilim Tab!

Here you can post a video or audio performance. Tell me more ...
Where can we find your performance? Tell me more ...
Your comment:
Please, log in to post your performance.