Artists by letter: A B C D E F G H I J K L M N O P Q R S T U V W X Y Z 0-9
 
Borsalino Tab
--------------------------------------------------------------------------
			     Barsilona - Tommy Emmanuel
--------------------------------------------------------------------------
Tabbed by:Coulter Shaw (Slash_7)
Email:windowinaglassprison@hotmail.com

Chet Atkins' song I think not to sure but its on the(when the fingerpickers
took over the world) cd with Tommy Emmanuel very cool.Enjoy!
Tuning:standard

e|-------------|------------|---------------0-(0)-|-4-------(4)------|
B|-------------|----------3-|:-6------------------|---------------7--|
G|-------------|------2-----|--4------------6-----|-----(6)------(6)-|
D|----------0--|-2h3--------|-------7----------7--|------7--------7--|
A|------0------|------------|:-0------------------|-0----------------|
E|-0h1---------|------------|-----------0---------|----------0-------|

e|-----0----4------|----0------4---------|-----------------9-|
B|-4-------------7-|-4---------------8/7-|-6-------7-(7)-----|
G|-6--(6)-------(6)|-6----(6)--------6---|-6----6--7-(7)---7-|
D|-----7---------7-|-------7-----------7-|-0-----------------|
A|-0---------------|-0-------------------|------------0------|
E|----------0------|--------------0------|-------------------|

e|-(9)----------7-(7)-----|-----------9--7--(7)---|-----------9-----9p7-|
B|--------------7-(7)---6-|(6)---7--------------6-|---7-(7)-------------|
G|-------7---------7----6-|(6)---7-----------7--6-|------7------------7-|
D|--0---------------------|-0---------------------|-0-------------------|
A|------------0-----------|-----------------------|--------------0------|
E|------------------------|-----------0-----------|---------------------|

e|------------7-----|-------------------|-----------7----|---------------|
B|-10-^---9-------7-|-(7)---------7-(7)-|10-^---9------7-|(7)------------|
G|-7--|---7---------|-------7-----------|-7-|---7------7-|(7)--------(7)-|
D|-7--|---7-------7-|-------7--------7--|-9-|---9------9-|-----9------9--|
A|-9--|-------9-----|----------9--------|-7-|-------7----|--------7------|
E|-7--|-------------|--7----------------|-0-|------------|-0-------------|
                          1.-------------------2.----------------------
e|------------------------|--------------------|-9--8h9----------------|
B|----8h9---8h9--------8h-|-9--8h9-----9------:|-----------(9)------8h-|
G|----6----------------6--|---------------6/0--|-----------------------|
D|------7----------7------|------7-------------|------7---------7------|
A|-0----------------------|-0-----------------:|-0---------------------|
E|------------0-----------|----------0---------|------------0----------|

e|---------------|--------------|----------------------|-----------------|
B|-9-------0---2-|-0------------|-----2--(2)---------0-|-(0)-----------0-|
G|-----2---------|-----2--1---2-|-----2--(2)--2-(2)--2-|-(2)-------------|
D|---------------|--------------|-0---4----------4-----|--0----4-------4-|
A|-0-------------|--------------|---------0------------|-----------0-----|
E|---------------|--------------|----------------------|-----------------|

e|------------------------|-------------------------|---------------------|
B|--------0-(0)--2--(2)-0-|-------------------------|------2--(2)-------0-|
G|-----2---------2--(2)-2-|----2-----1-----2-----0h-|-2----2------2-------|
D|-0---4-------------4----|-0-----4-----------4-----|------1---------1----|
A|-----------0------------|-------------0-----------|-2-------------------|
E|------------------------|-------------------------|----------2----------|

e|-------------------|------7--5h7--4-----5--(5)-|-7--------4-----------|
B|-(0)---------------|------6--6----------6--(6)-|-----5^--------5^--5h-|
G|-------2--------2/-|-7-------------------------|-----4|--------4|--4--|
D|-------1--------1--|------7-----------------7--|-----6|--------6|-----|
A|--2----------------|-5-------------------------|-4--------------------|
E|------------2------|-----------5-----5---------|----------4-----------|

e|----4-------------------|-----5----4----2--|---------------------|
B|-7--------5-(5)---------|------------------|-5---2---------------|
G|----------4-(4)---------|----(2)-------(2)-|--------2h4--2-----0-|
D|-------6----------------|-----2---------2--|-----2----------2----|
A|-4----------------------|-0----------------|---------------------|
E|-------------4----0h2h4-|----------4-------|-2--------0----------|

e|---------0--1--0----|-----1^--3--4--3-^1/-|-4---4^--6--7--6--4^/-|
B|-----3^-----------3-|-----1|----------|1/-|-4---4|-----------4|/-|
G|-----2|-------------|-----1|----------|1/-|-4---4|-----------4|/-|
D|--------------------|-----3|----------|3/-|-6---6|-----------6|/-|
A|--------------------|---------------------|----------------------|
E|-1------------------|-1-------------------|-4--------------------|
                                       play this bar 3x and slow down
e|-7----7^--9--10--9--7^-|-----0--------0-|-------0-----------0--|
B|-7----7|------------7|-|----------4-----|:-----------4--------:|
G|-7----7|------------7|-|----(6)---6-----|------(6)---6---------|
D|-9----9|------------9|-|-----7--------7-|-------7-----------7--|
A|-----------------------|-0--------------|:-0------------------:|
E|-7---------------------|----------0-----|------------0---------|
      Back to Sart:
e|-4--------------|------------------|--------------------|----------------|
B|-4-----------7-:|-9---8h9----------|----8h9-8h9------8h-|-9--8h9---------|
G|-5--------------|----------------6-|----6------------6--|------------(6)-|
D|-7--------------|-------7--------7-|------7-------7-----|------7------7--|
A|---------------:|-0----------------|-0------------------|-0--------------|
E|----------------|------------0-----|----------0---------|----------0-----|

e|-------------|-------------|-----------7--||
B|-------------|-----------3-|-4----5----5--||
G|-------------|-------2-----|-6---------6--||
D|-----------0-|-2h3---------|-7---------7--||
A|-------0-----|-------------|--------------||
E|-0h1---------|-------------|--------------||

there you go and enjoy.Plz rate my tab.

| /  slide up
|   slide down
| h  hammer-on
| p  pull-off
| ~  vibrato
| +  harmonic
| x  Mute note
============================================================================

Tablature player for this song:
 
 
Tommy Emmanuel - Borsalino Tab :: indexed at Ultimate Guitar.
Borsalino tabs @ 911Tabs

About the artist behind Borsalino Tab:

Tommy Emmanuel, CGP (born 31 May 1955) is an Australian guitarist, best known for his fingerpicking style and energetic performances.

Indexed at Wikipedia.

Show us your talent, perform Borsalino Tab!

Here you can post a video or audio performance. Tell me more ...
Where can we find your performance? Tell me more ...
Your comment:
Please, log in to post your performance.