Artists by letter: A B C D E F G H I J K L M N O P Q R S T U V W X Y Z 0-9

 
Sanctuary Tab
Song: Sanctuary
Artist: Callalily
Ear Tabber: Elvin Hayes Gentiles
School: Paranaque National High School (DOST)

Intro:
Guitar 1:
e|------------------------------------------|
B|------------------------------------------|
G|------------55555555--99999999--77777777--|
D|--55555555--55555555--99999999--77777777--| 2x
A|--55555555--33333333--77777777--55555555--|
E|--33333333--------------------------------|
Guitar 2:
e|------------------------------------------|
B|--15151515--13131313--12121212--13131313--|
G|------------------------------------------|
D|------------------------------------------| 8x
A|------------------------------------------|
E|------------------------------------------|

Verse:
Guitar 1:
e|------------|
B|------------|
G|--5~----7~--|
D|--5~----7~--| 12x
A|--3~----5~--|
E|------------|
Guitar 2:
e|------------------|
B|--8-7----8-8-7----|
G|------7--------7--|
D|------------------| repeat many times hanggang
A|------------------| matapos yong verse
E|------------------|

Refrain:
e|--------------------------------------|
B|--------------------------------------|
G|--44444444--55555555--77777777777777--|
D|--44444444--55555555--77777777777777--|
A|--22222222--33333333--55555555555555--|
E|--------------------------------------|

Chorus:
e|------------------------------------------|
B|------------------------------------------|
G|------------55555555--99999999--77777777--|
D|--55555555--55555555--99999999--77777777--| 2x
A|--55555555--33333333--77777777--55555555--|
E|--33333333--------------------------------|

Interlude:
Guitar 1:
e|------------------------------------------|
B|------------------------------------------|
G|------------55555555--99999999--77777777--|
D|--55555555--55555555--99999999--77777777--|
A|--55555555--33333333--77777777--55555555--|
E|--33333333--------------------------------|
Guitar 2:
e|------------------------------------------|
B|--15151515--13131313--12121212--13131313--|
G|------------------------------------------|
D|------------------------------------------| 4x
A|------------------------------------------|
E|------------------------------------------|

Verse:
Guitar 1:
e|------------|
B|------------|
G|--5~----7~--|
D|--5~----7~--| 4x
A|--3~----5~--|
E|------------|
Guitar 2:
e|------------------|
B|--8-7----8-8-7----|
G|------7--------7--|
D|------------------| repeat many times hanggang
A|------------------| matapos yong verse
E|------------------|

Refrain:
e|--------------------------------------|
B|--------------------------------------|
G|--44444444--55555555--77777777777777--|
D|--44444444--55555555--77777777777777--|
A|--22222222--33333333--55555555555555--|
E|--------------------------------------|

Chorus:
e|------------------------------------------|
B|------------------------------------------|
G|------------55555555--99999999--77777777--|
D|--55555555--55555555--99999999--77777777--| 2x
A|--55555555--33333333--77777777--55555555--|
E|--33333333--------------------------------|

Adlib:
Guitar 1:
e|------------------------------------------|
B|------------------------------------------|
G|------------55555555--99999999--77777777--|
D|--55555555--55555555--99999999--77777777--| 2x
A|--55555555--33333333--77777777--55555555--|
E|--33333333--------------------------------|
Guitar 2: 
e|-------------------------------------------------------------------------|
B|-------------------------------------------------------------------------|
G|-------------------------------------------------------------------------|
D|---------9-10-12-14-12~~---10-10-9-10-9--------10-10-9-10-9--------------|
A|--10-12---------------------------------10~~----------------10^(12)r10~~-|
E|-------------------------------------------------------------------------|
(continued)
e|---------------------|
B|---------------------|
G|---------------------|
D|--10-9-7-------------|
A|---------10-9-7------|
E|----------------8~~--|
(continued)
e|----------------------------------------------------------------------|
B|----------------------------------------------------------------------|
G|--12-11----12-11----12-11-12-11----14-11------------11-12-14-12-------|
D|--------12-------12-------------12-------12---12-14-------------14~~--|
A|----------------------------------------------------------------------|
E|----------------------------------------------------------------------|
(continued)
e|-----------------------------------------5-5-5-5-5-5-5-5-5------|
B|-----------------------------------------------------------8~~--|
G|--7/9------------5/75-4--7-5-----------------------------------|
D|-------7----------------------7-5-4-----------------------------|
A|---------7p5---7--------------------7~--------------------------|
E|-------------8--------------------------------------------------|

Chorus:
e|--33333333--00000000------------22222222--|
B|--33333333--11111111--00000000--33333333--|
G|--00000000--00000000--00000000--22222222--|
D|--00000000--22222222--22222222--00000000--| 2x
A|--22222222--33333333--22222222------------|
E|--33333333--------------------------------|

e|------------------------------------------|
B|------------------------------------------|
G|------------55555555--99999999--77777777--|
D|--55555555--55555555--99999999--77777777--| 2x
A|--55555555--33333333--77777777--55555555--|
E|--33333333--------------------------------|
Guitar 2:(plays in the first round only of chorus)
e|------------------------------------------|
B|--15151515--13131313--12121212--13131313--|
G|------------------------------------------|
D|------------------------------------------| 8x
A|------------------------------------------|
E|------------------------------------------|

Outro:
Guitar 1:
e|------------------------------------------|
B|------------------------------------------|
G|------------55555555--99999999--77777777--|
D|--55555555--55555555--99999999--77777777--| 2x
A|--55555555--33333333--77777777--55555555--|
E|--33333333--------------------------------|
Guitar 2:
e|------------------------------------------|
B|--15151515--13131313--12121212--13131313--|
G|------------------------------------------|
D|------------------------------------------| 8x
A|------------------------------------------|
E|------------------------------------------|

enjoy....


 
 
Callalily - Sanctuary Tab :: indexed at Ultimate Guitar.
Sanctuary tabs @ 911Tabs

About the artist behind Sanctuary Tab:

Callalily is a Filipino pop-rock band, composed of Kean Cipriano (Vocals), Alden Acosta (Lead Guitar), Tatsi Jamnague (Rhythm Guitar), Aaron Ricafrente (Bass) and Lemuel Belaro (Drums).

Indexed at Wikipedia.

Show us your talent, perform Sanctuary Tab!

Here you can post a video or audio performance. Tell me more ...
Where can we find your performance? Tell me more ...
Your comment:
Please, log in to post your performance.