Artists by letter: A B C D E F G H I J K L M N O P Q R S T U V W X Y Z 0-9

 
Hintay Tab
Song: Hintay
Artist:Callalily
From their 2nd Album: Fisheye
Ear tabber/guitarist: Toshi Llanes
Tuning: Standard
Time: 1:15 am
Date: April 14, 2008
Friendster: Theorbitz_frinx03@yahoo.com

Read first before trying:
	This is the song "Hintay", it is my favorite
song in the album. Kc dedicated ko ito sa isang tao
na sa ngayon ganun ang nararamdamn ko katulad nung
lyrics sa song..Composed by Lem Belaro...Pakinggan nyo
na yung bala para malaman yung mga timing...try niu rin
yung other tabs ko sa fisheye.Pakirate din poh..
Thanks..Pag may tanung just email me at thefrinx07@yahoo.com
.Enjoy..

Gtr 1: Rhythm
Gtr 2: Lead

Intro:
Guitar 1:C#m-B-A-B
Guitar 2:
|---------------------------|
|-9999-7777------------5555-|
|-----------6666--4444------|(Repeat 4x)
|---------------------------|
|---------------------------|
|---------------------------|

Verse:
Guitar 2:Sabayan niyo ung bala para malaman niu timing
|---------7---|
|-7h9-7h9---7-|
|-------------|
|-------------|
|-------------|
|-------------|

OR

|---------7---|
|-7h9-7h9---9-|
|-------------|
|-------------|
|-------------|
|-------------|

Guitar 1:
E      B           C#m
Kahit anong gawing pagiwas
              A
Pilit pa din kitang hinahanap
E            B            C#m
Kahit ilang araw pa ang lumipas
                A
Hindi pa rin sa'yo makatakas

Refrain:
F#m               B
Nakalimutan mo na ba
F#m			   B
Baka naman ako'y nandyan pa
F#m              B
Iyo sanang madama
A                    B                  C#m-B-A
Bawat panalangin ko sana'y di na mag-isa

Chorus:
Guitar 2:
|-44---------------22--------------------------------|
|-55---------------44--------------------------------|
|-66-/111111-9999-44-/111111-9999-------------------|(Repeat 2x)
|-66-/xxxx---xxxx--44-/xxxx---xxxx--7777777--9999999-|
|-44-/9999---7777--22-/9999---7777--7777777--9999999-|
|-----------------------------------5555555--7777777-|

C#m     B            A             B
Isipin limutin bakit di magawang ika'y lisanin
C#m      B                    A           B
Pilitin sabihin mong hanggang dito na lang

 (Repeat Intro)

Verse 2:
Guitar 2:Sabayan niyo ung bala para malaman niu timing
|---------7---|
|-7h9-7h9---7-|
|-------------|
|-------------|
|-------------|
|-------------|

OR

|---------7---|
|-7h9-7h9---9-|
|-------------|
|-------------|
|-------------|
|-------------|

E      B           C#m
Abot tanaw ako ay natutunaw
          A
Mga mata ko'y naliligaw
E           B
Sa sikat ng iyong araw
    C#m               A
Pag-asa'y unti-unting nalulusaw

[Repeat chorus]

Bridge:
C#m        B		 A			B
At kung hindi ka na babalik (na babalik,na babalik)
C#m   B	      A      B
Antayin na lang kita sa langit

Adlib: Its accurate and sounds the same though..
Just listen to the song for the correct timing..OR
		Note: To know the timing watch our band cover at
youtube just type "Orbitz03"

Guitar 2:
|-----------------|
|-----4h5-4p2-4---|
|-4h6-----------4-|
|-----------------|
|-----------------|
|-----------------|

|-2s4444-7-4h5p4-------|
|----------------7p5p4-|
|----------------------|
|----------------------|
|----------------------|
|----------------------|

|-454-5-5s7-44--------4--4h5p4-----5-4-7-----4-|
|--------------77p5-5----------7-5-------5-7---|
|----------------------------------------------|
|----------------------------------------------|
|----------------------------------------------|
|----------------------------------------------|

|-----7--4-----4-----------------4---------|
|-4-5------7-5---5-4-5h7-4h5--55---5-4-5---|
|----------------------------------------6-|
|------------------------------------------|
|------------------------------------------|
|------------------------------------------|

|----------------------------|
|-444h55h7-7p5p4-4h5h7-7p5p4-|
|----------------------------|
|----------------------------|
|----------------------------|
|----------------------------|

(Repeat Chorus)

Hanggang dito...
Guitar 1: C#m-B-A-B
Guitar 2:Not really that sure,timingan niu nalang
|--444-----4444-4h7-----4444444s7-777777s12-|
|------5s1----------5s1---------------------|
|-------------------------------------------|
|-------------------------------------------|
|-------------------------------------------|
|-------------------------------------------|

Hanggang dito..
|-121212121212b12b12b12-|
|-----------------------|
|-----------------------|(Continous)
|-----------------------|
|-----------------------|
|-----------------------|

Hanggang dito...
Violin:
|-----------|
|-7--5---5--|
|------4----|
|-----------|
|-----------|
|-----------|


	Gennelyn this one's for you..Alam ko na imposible na mahalin mo ako ng tulad ng love ko
but I will still be here for you even though your far away now...Hope you be happy
decision you made..I don't know why you are still here in my mind and heart..Your still 
is still love you I will always support you everything you do.. Maybe someday our
will cross again..Hope you will never forget me..I love you Gennelyn MAnzanero...I will 
ever ever forget you... You're the one who holds my heart...
Pls. don't forget what I said.. just listen to this and you will remember me... I will
the moments we spent time together . Good luck on your college life  take care always.. I
you with all my heart..Kahit na ganun yung nangyari tanggap ko na naman pero sana 
mo ito  Don't worry I'll be alright even though it hurts so much and it is still
to see you soon..congrats..be happy..:(

 
 
Callalily - Hintay Tab :: indexed at Ultimate Guitar.
Hintay tabs @ 911Tabs

About the artist behind Hintay Tab:

Callalily is a Filipino pop-rock band, composed of Kean Cipriano (Vocals), Alden Acosta (Lead Guitar), Tatsi Jamnague (Rhythm Guitar), Aaron Ricafrente (Bass) and Lemuel Belaro (Drums).

Indexed at Wikipedia.

Show us your talent, perform Hintay Tab!

Here you can post a video or audio performance. Tell me more ...
Where can we find your performance? Tell me more ...
Your comment:
Please, log in to post your performance.