Artists by letter: A B C D E F G H I J K L M N O P Q R S T U V W X Y Z 0-9
 
Extreme Days Tab
Tuning Drop D:  DADGBe

Intro:

E----------------------------------------------|
B----------------------------------------------|
G----------------------------------------------|
D---0---0---3---5---10-----10---5---3---0---3--|
A---0---0---3---5---10-----10---5---3---0---3--|
D---0---0---3---5---10-----10---5---3---0---3--|    
                                                    _ Play two times
E------------------------------------------------| /
B------------------------------------------------|
G------------------------------------------------|
D---0---0---3---5---10-----10---5---3---0---6----|
A---0---0---3---5---10-----10---5---3---0---6----|
D---0---0---3---5---10-----10---5---3---0---6----|


Since I cannot include the lyrics each tab is about one phrase...I think

Verse:

E-------------------------------------------|
B-------------------------------------------|
G-------------------------------------------|
D---0---0----0---0----0---0----0---0--------|
A---0---0----0---0----0---0----0---0--------|
D---0---0----0---0----0---0----0---0--------|


E--------------------------------------------|
B--------------------------------------------|
G--------------------------------------------|
D---0---0----0---0----0---0----0---0----3----|
A---0---0----0---0----0---0----0---0----3----|
D---0---0----0---0----0---0----0---0----3----|


E-------------------------------------------|
B-------------------------------------------|
G-------------------------------------------|
D---0---0----0---0----0---0----0---0--------|
A---0---0----0---0----0---0----0---0--------|
D---0---0----0---0----0---0----0---0--------|


E--------------------------------------------|
B--------------------------------------------|
G--------------------------------------------|
D---0---0----0---0----0---0----0---0----3----|
A---0---0----0---0----0---0----0---0----3----|
D---0---0----0---0----0---0----0---0----3----|

E---------------------------------------------|
B---------------------------------------------|
G---------------------------------------------|
D---0---3---0---3---0---3---0---3-------------|
A---0---3---0---3---0---3---0---3-------------|
D---0---3---0---3---0---3---0---3-------------|


E---------------------------------------------|
B---------------------------------------------|
G---------------------------------------------|
D---0---3---0---3---0---3---0---3-------------|
A---0---3---0---3---0---3---0---3-------------|
D---0---3---0---3---0---3---0---3-------------|


E-------------------------------------------|
B-------------------------------------------|
G-------------------------------------------|
D---0---0----0---0----0---0----0---0--------|
A---0---0----0---0----0---0----0---0--------|
D---0---0----0---0----0---0----0---0--------|


E--------------------------------------------|
B--------------------------------------------|
G--------------------------------------------|
D---0---0----0---0----0---0----0---0----3----|
A---0---0----0---0----0---0----0---0----3----|
D---0---0----0---0----0---0----0---0----3----|

E-------------------------------------------|
B-------------------------------------------|
G-------------------------------------------|
D---0---0----0---0----0---0----0---0--------|
A---0---0----0---0----0---0----0---0--------|
D---0---0----0---0----0---0----0---0--------|


E--------------------------------------------|
B--------------------------------------------|
G--------------------------------------------|
D---0---0----0---0----0---0----0---0----3----|
A---0---0----0---0----0---0----0---0----3----|
D---0---0----0---0----0---0----0---0----3----|


Pre-chorus:

E----------------------------------------------|
B----------------------------------------------|
G----------------------------------------------|
D---0---3---0---3---0---3---0---3----3----4----|
A---0---3---0---3---0---3---0---3----x----x----|
D---0---3---0---3---0---3---0---3----3----4----|

E----------------------------------------------|
B----------------------------------------------|
G----------------------------------------------|
D---0---3---0---3---0---3---0---3----5----6----|
A---0---3---0---3---0---3---0---3----x----x----|
D---0---3---0---3---0---3---0---3----5----6----|

E-----------------------------------------------------------|
B-----------------------------------------------------------|
G-----------------------------------------------------------|
D---0---3---0---3---0---3---0---3----7----8-------3-3-3-3-3-|
A---0---3---0---3---0---3---0---3----x----x-------3-3-3-3-3-|
D---0---3---0---3---0---3---0---3----7----8-------3-3-3-3-3-|




Chorus: 2x

E----------------------------------------------------------------------|
B----------------------------------------------------------------------|
G----------------------------------------------------------------------|
D-------------0----7--6--5--3----3--0----7--6--5--3---0----7--6--5--3--|
A-------------0----7--6--5--3----3--0----7--6--5--3---0----7--6--5--3--|
D-------------0----7--6--5--3----3--0----7--6--5--3---0----7--6--5--3--|

E---------------------------------------------|
B---------------------------------------------|
G---------------------------------------------|
D--3-0---3---0---3---0---3---0---3----5-------|
A--3-0---3---0---3---0---3---0---3----5-------|
D--3-0---3---0---3---0---3---0---3----5-------|

Bridge (slower part)

E|---------------------------|
B|---------------------------|
G|---------------------------|
D|-------4---5---4-----------|
A|---2------------------1/---|
D|---------------------------|


Repeat a few times.
Then

E|----------------------------------------------|
B|----------------------------------------------|
G|----------------------------------------------|
D|---0---3---0---3---0---3---0---3-----5---6----|
A|---0---3---0---3---0---3---0---3-----5---6----|
D|---0---3---0---3---0---3---0---3-----5---6----|


Pre-chorus:

E---------------------------------------------|
B---------------------------------------------|
G---------------------------------------------|
D---0---3---0---3---0---3---0---3----3----4---|
A---0---3---0---3---0---3---0---3----x----x---|
D---0---3---0---3---0---3---0---3----3----4---|


E---------------------------------------------|
B---------------------------------------------|
G---------------------------------------------|
D---0---3---0---3---0---3---0---3----5----6---|
A---0---3---0---3---0---3---0---3----x----x---|
D---0---3---0---3---0---3---0---3----5----6---|


E-----------------------------------------------|
B-----------------------------------------------|
G-----------------------------------------------|
D---0---3---0---3---0---3---0---3----7----8-----|
A---0---3---0---3---0---3---0---3----x----x-----|
D---0---3---0---3---0---3---0---3----7----8-----|

E-----------------------------------------------|
B-----------------------------------------------|
G-----------------------------------------------|
D---0---3---0---3---0---3---0---3----9----10----|
A---0---3---0---3---0---3---0---3----x----x-----|
D---0---3---0---3---0---3---0---3----9----10----|

Chorus x 3

end


Phew! This is my best representation.  I love playing this song really
loud. PLay it with the CD and it sounds awesome. E-mail me if you have
any suggestions at sammyrvargas@hotmail.com

Tablature player for this song:
 
 
Tobymac - Extreme Days Tab :: indexed at Ultimate Guitar.
Extreme Days tabs @ 911Tabs

Quick tip, so you can enjoy Extreme Days Tab even more:

If you don't really know how to deal with "Absus4" chord and his equally confusing brothers, just put the mouse cursor over them and you will be shown a helpful chord diagram.

Show us your talent, perform Extreme Days Tab!

Here you can post a video or audio performance. Tell me more ...
Where can we find your performance? Tell me more ...
Your comment:
Please, log in to post your performance.