Artists by letter: A B C D E F G H I J K L M N O P Q R S T U V W X Y Z 0-9
 
Wilayah Strawberi Tab
tab by harry

standard tunning

INTRO

GUITAR 1&2

    C           Em7           Dm7         G
e|--3-3-3-3-x-3-7-7-7-7-x-7-7-5-5-5-5-x-5-3-3-3-3-3-3----|
B|--5-5-5-5-x-5-8-8-8-8-x-8-8-6-6-6-6-x-6-3-3-3-3-3-3----|
G|--5-5-5-5-x-5-7-7-7-7-x-7-7-5-5-5-5-x-7-4-4-4-4-4-4----|
D|--5-5-5-5-x-5-9-9-9-9-x-9-9-7-7-7-7-x-7-5-5-5-5-5-5----|
A|--3-3-3-3-x-3-7-7-7-7-x-7-7-5-5-5-5-x-5-5-5-5-5-5-5----|
E|----------------------------------------3-3-3-3-3-3----|

VERSE 1

GUITAR 1

--3-3-3-3-x-3-3-7-7-7-7-x-7-7-5-5-5-5-x-5-5-3-3-3-3-3-3----|
--5-5-5-5-x-5-5-8-8-8-8-x-8-8-6-6-6-6-x-6-6-3-3-3-3-3-3----|
--5-5-5-5-x-5-5-7-7-7-7-x-7-7-5-5-5-5-x-5-5-4-4-4-4-4-4----|
--5-5-5-5-x-5-5-9-9-9-9-x-9-9-7-7-7-7-x-7-7-5-5-5-5-5-5----|
--3-3-3-3-x-3-3-7-7-7-7-x-7-7-5-5-5-5-x-5-5-5-5-5-5-5-5----|
--------------------------------------------3-3-3-3-3-3----|

GUITAR 2

-----------------------------------------------------------|
-8--8----8----8h10-8~---------8--8----8--10/12---10---8~---|
--99---99---99-----------------99---99---------------------|
-----------------------------------------------------------|
-----------------------------------------------------------|
-----------------------------------------------------------|


GUITAR 1

--3-3-3-3-x-3-3-7-7-7-7-x-7-7-5-5-5-5-x-5-5-3-3-3----------|
--5-5-5-5-x-5-5-8-8-8-8-x-8-8-6-6-6-6-x-6-6-3-3-3----------|
--5-5-5-5-x-5-5-7-7-7-7-x-7-7-5-5-5-5-x-5-5-4-4-4----------|
--5-5-5-5-x-5-5-9-9-9-9-x-9-9-7-7-7-7-x-7-7-5-5-5----------|
--3-3-3-3-x-3-3-7-7-7-7-x-7-7-5-5-5-5-x-5-5-5-5-5----------|
--------------------------------------------3-3-3----------|

GUITAR 2

------------------------------------------------------------|
-8--8----8----8h10-8~---------/15--13--12--13---------------|
--99---99---99---------------------------------12~----------|
------------------------------------------------------------|
------------------------------------------------------------|
------------------------------------------------------------|

VERSE 2

GUITAR 1&2


--3-3-3-3-x-3-3-7-7-7-7-x-7-7-5-5-5-5-x-5-5-3-3-3-3-3-3----|
--5-5-5-5-x-5-5-8-8-8-8-x-8-8-6-6-6-6-x-6-6-3-3-3-3-3-3----|
--5-5-5-5-x-5-5-7-7-7-7-x-7-7-5-5-5-5-x-5-5-4-4-4-4-4-4----|
--5-5-5-5-x-5-5-9-9-9-9-x-9-9-7-7-7-7-x-7-7-5-5-5-5-5-5----|
--3-3-3-3-x-3-3-7-7-7-7-x-7-7-5-5-5-5-x-5-5-5-5-5-5-5-5----|
--------------------------------------------3-3-3-3-3-3----|


--3-3-3-3-x-3-3-7-7-7-7-x-7-7-5-5-5-5-x-5-5-3-3-3-3-3-3----|
--5-5-5-5-x-5-5-8-8-8-8-x-8-8-6-6-6-6-x-6-6-3-3-3-3-3-3----|
--5-5-5-5-x-5-5-7-7-7-7-x-7-7-5-5-5-5-x-5-5-4-4-4-4-4-4----|
--5-5-5-5-x-5-5-9-9-9-9-x-9-9-7-7-7-7-x-7-7-5-5-5-5-5-5----|
--3-3-3-3-x-3-3-7-7-7-7-x-7-7-5-5-5-5-x-5-5-5-5-5-5-5-5----|
--------------------------------------------3-3-3-3-3-3----|


BRIDGE

GUITAR 1

--0~--------------------------0~---------------------------|
--0~--------------------------1~---------------------------|
--0~--------------------------2~---------------------------|
--2~--------------------------2~---------------------------|
--2~--------------------------0~---------------------------|
--0~-------------------------------------------------------|

GUITAR 2

--------0---------------------------0----------------------|
------0---------------------------1------------------------|
----0---------------------------2--------------------------|
-----------------------------------------------------------|
-----------------------------------------------------------|
-----------------------------------------------------------|

GUITAR 1


--0~--------------------------0~------------2~-------------|
--0~--------------------------1~------------3~-------------|
--0~--------------------------2~------------2~-------------|
--2~--------------------------2~------------0~-------------|
--2~--------------------------0~---------------------------|
--0~-------------------------------------------------------|

GUITAR 2

--------0---------------------------0-------2~-------------|
------0---------------------------1---------3~-------------|
----0---------------------------2-----------2~-------------|
--------------------------------------------0~-------------|
-----------------------------------------------------------|
-----------------------------------------------------------|


GUITAR 1

--3-3-3-3-x-3-3-7-7-7-7-x-7-7-5-5-5-5-x-5-5-3-3-3-3-3-3----|
--5-5-5-5-x-5-5-8-8-8-8-x-8-8-6-6-6-6-x-6-6-3-3-3-3-3-3----|
--5-5-5-5-x-5-5-7-7-7-7-x-7-7-5-5-5-5-x-5-5-4-4-4-4-4-4----|
--5-5-5-5-x-5-5-9-9-9-9-x-9-9-7-7-7-7-x-7-7-5-5-5-5-5-5----|
--3-3-3-3-x-3-3-7-7-7-7-x-7-7-5-5-5-5-x-5-5-5-5-5-5-5-5----|
--------------------------------------------3-3-3-3-3-3----|

GUITAR 2

-----------------------------------------------------------|
-8--8----8----8h10-8~---------8--8----8--10/12---10---8~---|
--99---99---99-----------------99---99---------------------|
-----------------------------------------------------------|
-----------------------------------------------------------|
-----------------------------------------------------------|


GUITAR 1

--3-3-3-3-x-3-3-7-7-7-7-x-7-7-5-5-5-5-x-5-5-3-3-3----------|
--5-5-5-5-x-5-5-8-8-8-8-x-8-8-6-6-6-6-x-6-6-3-3-3----------|
--5-5-5-5-x-5-5-7-7-7-7-x-7-7-5-5-5-5-x-5-5-4-4-4----------|
--5-5-5-5-x-5-5-9-9-9-9-x-9-9-7-7-7-7-x-7-7-5-5-5----------|
--3-3-3-3-x-3-3-7-7-7-7-x-7-7-5-5-5-5-x-5-5-5-5-5----------|
--------------------------------------------3-3-3----------|

GUITAR 2

------------------------------------------------------------|
-8--8----8----8h10-8~---------/15--13--12--13---------------|
--99---99---99---------------------------------12~----------|
------------------------------------------------------------|
------------------------------------------------------------|
------------------------------------------------------------|


GUITAR 1&2


--3-3-3-3-x-3-3-7-7-7-7-x-7-7-5-5-5-5-x-5-5-3-3-3-3-3-3----|
--5-5-5-5-x-5-5-8-8-8-8-x-8-8-6-6-6-6-x-6-6-3-3-3-3-3-3----|
--5-5-5-5-x-5-5-7-7-7-7-x-7-7-5-5-5-5-x-5-5-4-4-4-4-4-4----|
--5-5-5-5-x-5-5-9-9-9-9-x-9-9-7-7-7-7-x-7-7-5-5-5-5-5-5----|
--3-3-3-3-x-3-3-7-7-7-7-x-7-7-5-5-5-5-x-5-5-5-5-5-5-5-5----|
--------------------------------------------3-3-3-3-3-3----|


--3-3-3-3-x-3-3-7-7-7-7-x-7-7-5-5-5-5-x-5-5-3-3-3-3-3-3----|
--5-5-5-5-x-5-5-8-8-8-8-x-8-8-6-6-6-6-x-6-6-3-3-3-3-3-3----|
--5-5-5-5-x-5-5-7-7-7-7-x-7-7-5-5-5-5-x-5-5-4-4-4-4-4-4----|
--5-5-5-5-x-5-5-9-9-9-9-x-9-9-7-7-7-7-x-7-7-5-5-5-5-5-5----|
--3-3-3-3-x-3-3-7-7-7-7-x-7-7-5-5-5-5-x-5-5-5-5-5-5-5-5----|
--------------------------------------------3-3-3-3-3-3----|


GUITAR 1

--0~--------------------------0~---------------------------|
--0~--------------------------1~---------------------------|
--0~--------------------------2~---------------------------|
--2~--------------------------2~---------------------------|
--2~--------------------------0~---------------------------|
--0~-------------------------------------------------------|

GUITAR 2

--------0---------------------------0----------------------|
------0---------------------------1------------------------|
----0---------------------------2--------------------------|
-----------------------------------------------------------|
-----------------------------------------------------------|
-----------------------------------------------------------|

GUITAR 1


--0~--------------------------0~------------2~-------------|
--0~--------------------------1~------------3~-------------|
--0~--------------------------2~------------2~-------------|
--2~--------------------------2~------------0~-------------|
--2~--------------------------0~---------------------------|
--0~-------------------------------------------------------|

GUITAR 2

--------0---------------------------0-------2~-------------|
------0---------------------------1---------3~-------------|
----0---------------------------2-----------2~-------------|
--------------------------------------------0~-------------|
-----------------------------------------------------------|
-----------------------------------------------------------|

CHORUS

i thought same as verse 2

thats all


i thought its accurate enough...

any comment please e-mel me at guerillas_buewaih@yahoo.com
this is my first work...
Rock n Roll with The Times

Tablature player for this song:
 
 
The Times - Wilayah Strawberi Tab :: indexed at Ultimate Guitar.
Wilayah Strawberi tabs @ 911Tabs

Quick tip, so you can enjoy Wilayah Strawberi Tab even more:

Try out the AutoScroller option ... It scrolls the page for you, so you can totally focus on nailing that solo. You can choose among different speeds using your mouse or your keyboard (keys 0, 1, 2 and 3).

Show us your talent, perform Wilayah Strawberi Tab!

Here you can post a video or audio performance. Tell me more ...
Where can we find your performance? Tell me more ...
Your comment:
Please, log in to post your performance.