Artists by letter: A B C D E F G H I J K L M N O P Q R S T U V W X Y Z 0-9

 
Your Guardian Angel Tab
well.. the tab before me was awesome.. but i saw just a few slight mistakes soo i
to tab this song perfectly...

The Red Jumpsuit Apparatus
Your Guardian Angel
Album:  Dont You Fake It
Tuning:  Drop C

KEY:
h - hammer-on
p - pull-off
/ - slide

INTRO
|------------------------------------------------------------|
|------------------------------------------------------------|
|------------------------7-7777------------------------7-5-4-|
|-5-5555-5h7-7777-5-5555-5-5555-0-0000-0h7-7777-4-4444-0-0-0-|
|-5-5555-5---5555-5-5555-5-5555-0-0000-0---0000-0-0000-0-0-0-|
|-5-5555-5---5555-5-5555-5-5555-0-0000-0---0000-0-0000-------|

|---------------------------------------------------------------|
|---------------------------------------------------------------|
|-----------------------------------5-5555-5-5555--7-7777-7-777-|
|-2-2222-2h4-4444-4h5-5555-5p4-4444-5-5555-5-5555--7-7777-7-777-|
|-2-2222-2---2222-2---2222-2---2222-3-3333-3-3333--5-5555-5-555-|
|-2-2222-2---2222-2---2222-2---2222-----------------------------|

VERSE
|---------------------------------------------------------|
|---------------------------------------------------------|
|-------------------------------------------5-5555-5-5555-|
|-5-5555-5-5555-0-0000-0-0000-2-2222-2-2222-5-5555-5-5555-|(4x)
|-5-5555-5-5555-0-0000-0-0000-2-2222-2-2222-3-3333-3-3333-|
|-5-5555-5-5555-0-0000-0-0000-2-2222-2-2222---------------|

CHORUS
|------------------------------------|
|------------------------------------|
|----------------------------------5-|
|-5----------0----------2----------3-|(2x)
|-5----------0----------2----------3-|
|-5----------0----------2------------|

POST-CHORUS
|------------------------------------------------------------|
|------------------------------------------------------------|
|------------------------7-7777------------------------7-5-4-|
|-5-5555-5h7-7777-5-5555-5-5555-0-0000-0h7-7777-4-4444-0-0-0-|
|-5-5555-5---5555-5-5555-5-5555-0-0000-0---0000-0-0000-0-0-0-|
|-5-5555-5---5555-5-5555-5-5555-0-0000-0---0000-0-0000-------|

|---------------------------------------------------------------|
|---------------------------------------------------------------|
|-----------------------------------5-5555-5-5555--7-7777-7-777-|
|-2-2222-2h4-4444-4h5-5555-5p4-4444-5-5555-5-5555--7-7777-7-777-|
|-2-2222-2---2222-2---2222-2---2222-3-3333-3-3333--5-5555-5-555-|
|-2-2222-2---2222-2---2222-2---2222-----------------------------|

VERSE
|---------------------------------------------------------|
|---------------------------------------------------------|
|-------------------------------------------5-5555-5-5555-|
|-5-5555-5-5555-0-0000-0-0000-2-2222-2-2222-5-5555-5-5555-|(2x)
|-5-5555-5-5555-0-0000-0-0000-2-2222-2-2222-3-3333-3-3333-|
|-5-5555-5-5555-0-0000-0-0000-2-2222-2-2222---------------|

CHORUS
|------------------------------------|
|------------------------------------|
|----------------------------------5-|
|-5----------0----------2----------3-|(2x)
|-5----------0----------2----------3-|
|-5----------0----------2------------|

INTERLUDE
|------------------------------------------------------------|
|------------------------------------------------------------|
|------------------------7-7777------------------------7-5-4-|
|-5-5555-5h7-7777-5-5555-5-5555-0-0000-0h7-7777-4-4444-0-0-0-|
|-5-5555-5---5555-5-5555-5-5555-0-0000-0---0000-0-0000-0-0-0-|
|-5-5555-5---5555-5-5555-5-5555-0-0000-0---0000-0-0000-------|

|---------------------------------------------------------------|
|---------------------------------------------------------------|
|-----------------------------------5-5555-5-5555--7-7777-7-777-|
|-2-2222-2h4-4444-4h5-5555-5p4-4444-5-5555-5-5555--7-7777-7-777-|
|-2-2222-2---2222-2---2222-2---2222-3-3333-3-3333--5-5555-5-555-|
|-2-2222-2---2222-2---2222-2---2222-----------------------------|

|------------------------------------------------------------|
|------------------------------------------------------------|
|------------------------7-7777------------------------7-5-4-|
|-5-5555-5h7-7777-5-5555-5-5555-0-0000-0h7-7777-4-4444-0-0-0-|
|-5-5555-5---5555-5-5555-5-5555-0-0000-0---0000-0-0000-0-0-0-|
|-5-5555-5---5555-5-5555-5-5555-0-0000-0---0000-0-0000-------|

|-----------------------------------|
|-----------------------------------|
|-----------------------------------|
|-2-2222-2h4-4444-4h5-5555-5p4-4444-|
|-2-2222-2---2222-2---2222-2---2222-|
|-2-2222-2---2222-2---2222-2---2222-|

DISTORTED OUTRO
|-----------------------|
|-----------------------|
|-55--55--7-7777-7-7777-|
|-55--55--7-7777-7-7777-|
|-33--33--5-5555-5-5555-|
|-----------------------|

|---------------------------------------------------------|
|---------------------------------------------------------|
|---------------------------------------------------------|
|-5-5555-5-5555-5-5555-5-5555-0-0000-0-0000-0-0000-0-0000-|
|-5-5555-5-5555-5-5555-5-5555-0-0000-0-0000-0-0000-0-0000-|
|-5-5555-5-5555-5-5555-5-5555-0-0000-0-0000-0-0000-0-0000-|

|---------------------------------------------------------|
|---------------------------------------------------------|
|-----------------------------5-5555-5-5555-7-7777-7-7777-|
|-2-2222-2-2222-2-2222-2-2222-5-5555-5-5555-7-7777-7-7777-|
|-2-2222-2-2222-2-2222-2-2222-3-3333-3-3333-5-5555-5-5555-|
|-2-2222-2-2222-2-2222-2-2222-----------------------------|

|-----------------------------------------|
|-----------------------------------------|
|----------------/11-11111111-11-11111111-|
|-5-5555-5-5555--/x--x-x-x-x--x--x-x-x-x--|
|-5-5555-5-5555--/9--9-9-9-9--9--9-9-9-9--|
|-5-5555-5-5555---------------------------|

|--------------------------------------------|
|--------------------------------------------|
|----------------121212121212-/-141414141414-|
|-5-5555-5-5555--x-x-x-x-x-x----x-x-x-x-x-x--|
|-5-5555-5-5555--101010101010-/-121212121212-|
|-5-5555-5-5555------------------------------|

There you go.. its deffinately perfect.. if you have any questions about it.. IM me at 
its a very easy song to play.. so enjoy

 
 
The Red Jumpsuit Apparatus - Your Guardian Angel Tab :: indexed at Ultimate Guitar.
Your Guardian Angel tabs @ 911Tabs

About the artist behind Your Guardian Angel Tab:

The Red Jumpsuit Apparatus (also known as Red Jumpsuit Apparatus or RJA) is a band that formed in 2003 in Jacksonville, Florida. The band consists of lead vocalist Ronnie Winter, lead guitarist Elias Reidy, bassist Joey Westwood, guitarist Duke Kitchens, and drummer Jon Wilkes; all perform back-up vocals. Their debut major label album Don't You Fake It was released on July 18, 2006, and has since been certified platinum.

Indexed at Wikipedia.

Show us your talent, perform Your Guardian Angel Tab!

Here you can post a video or audio performance. Tell me more ...
Where can we find your performance? Tell me more ...
Your comment:
Please, log in to post your performance.