Artists by letter: A B C D E F G H I J K L M N O P Q R S T U V W X Y Z 0-9
 
Oceans Chords
" (oceans) "
āˆ™ Halina Heron āˆ™
hlnhrn.bandcamp.com

standard tuning
capo 4

e|---------------------------------------------------------|
B|------------1-------------1-------------1-------------1--|
G|------2-------------2-------------2-------------2--------|
D|---------2-------------2-------------2-------------2-----|
A|---0-------------0-------------0-------------0-----------|
E|---------------------------------------------------------|

e|---------------------------------------------------------|
B|------------1-------------1-------------1-------------1--|
G|------0-------------0-------------0-------------0--------|
D|---------2-------------2-------------2-------------2-----|
A|---3-------------3-------------3-------------3-----------|
E|---------------------------------------------------------|

repeat until chorus

e|---------------------------------------------------------|
B|------------0-------------0-------------0-------------0--|
G|------0-------------0-------------0-------------0--------|
D|---------0-------------0-------------0-------------0-----|
A|---------------------------------------------------------|
E|---3-------------3-------------3-------------3-----------|

e|---------------------------------------------------------|
B|------------1-------------1-------------1-------------1--|
G|------2-------------2-------------2-------------2--------|
D|---------3-------------3-------------3-------------3-----|
A|---------------------------------------------------------|
E|---1-------------1-------------1-------------1-----------|

e|---------------------------------------------------------|
B|------------1-------------1-------------1-------------1--|
G|------0-------------0-------------0-------------0--------|
D|---------2-------------2-------------2-------------2-----|
A|---3-------------3-------------3-------------3-----------|
E|---------------------------------------------------------|


[Verse]
Am
I had a dream last night
                  C
the worst part of you

came to life
Am
it was a curious dream
            C
unlike any other scene
                        Am      C
Iā€™d seen in my life

Am
you told me not to run

that I would just be blinded
        C
by the sun
Am
you tried to comfort me
                C
said any other day I like,

that I could leave


G                   F
and you grabbed my neck
                C
I grabbed your thighs
G           F
not realizing your
          C
clever disguise

G   F
I looked into a strangers eyes
 C
that night

[Verse]
Am
and then you dragged

me to the shore
                C
said you had a little

plan in store
Am
then you pushed me in
                C
said you didn't want me

anymore

G    F          C
and you drowned me
 
 
Halina Heron - Oceans Chords :: indexed at Ultimate Guitar.
Oceans tabs @ 911Tabs
People who played Halina Heron - Oceans Chords also played these songs by Halina Heron:
G U I L T Y Chords, Poem Chords, Va Tab

Quick tip, so you can enjoy Oceans Chords even more:

YourChords.com Guitar Chords and Tabs Archive is currently indexing over 240'000 songs from 21'000+ different artists. And new chords just keep on coming in, so you will surely never run out of them.

Show us your talent, perform Oceans Chords!

Here you can post a video or audio performance. Tell me more ...
Where can we find your performance? Tell me more ...
Your comment:
Please, log in to post your performance.