Artists by letter: A B C D E F G H I J K L M N O P Q R S T U V W X Y Z 0-9

 
Love Is Blue
LOVE IS BLUE

The Ventures

INTRO

Am              D                 Am              D
e|-12----------10------------------|---------------------------------|
B|-----------------13--12------10--|---------------------------------|
G|---------------------------------|-----12------11------9---7---9---|
D|---------------------------------|---------------------------------|
A|---------------------------------|---------------------------------|
E|---------------------------------|---------------------------------|

e|---------------------------------|---------------------------------|
B|---------5---------------7-------|---------5---------------7-------|
G|-----5-------5-------7-------7---|-----5-------5-------7-------7---|
D|-7---------------7---------------|-7---------------7---------------|
A|---------------------------------|---------------------------------|
E|---------------------------------|---------------------------------|



Am              D                 Am              D
e|---------------------------------|---------------------------------|
B|---------------------------------|---------------------------------|
G|-----------------7---5-----------|---------------------------------|
D|-------------------------9-------|-7-------------------------------|
A|---------------------------------|---------10------9---7---5-------|
E|---------------------------------|-----------------------------8---|

e|---------------------------------|---------------------------------|
B|---------5---------------7-------|---------5---------------7-------|
G|-----5-------5-------7-------7---|-----5-------5-------7-------7---|
D|-7---------------7---------------|-7---------------7---------------|
A|---------------------------------|---------------------------------|
E|---------------------------------|---------------------------------|



Am              D                 Am              D
e|---------------------------------|---------------------------------|
B|---------------------------------|---------------------------------|
G|---------------------------------|---------------------------------|
D|---------------------------------|---------------------------------|
A|-----------------5---------------|-----------------5---------------|
E|---------------------------------|-8-------------------------------|

e|---------------------------------|---------------------------------|
B|---------5---------------7-------|---------5---------------7-------|
G|-----5-------5-------7-------7---|-----5-------5-------7-------7---|
D|-7---------------7---------------|-7---------------7---------------|
A|---------------------------------|---------------------------------|
E|---------------------------------|---------------------------------|



VERSE

Am              D                 G               C
e|---------------------------------|---------------------------------|
B|---------------------------------|---------------------------------|
G|---------------------------------|---------------------------------|
D|-2-------------------------------|---------------------------------|
A|-----------------5-----------3---|-2-------------------------------|
E|---------------------------------|---------5-------3---------------|



Am              F                 G               C
e|---------------------------------|---------------------------------|
B|---------------------------------|---------------------------------|
G|---------------------------------|---------------------------------|
D|---------------------------------|---------------------------------|
A|-0-------3---2---3-------0-------|---------------------------------|
E|---------------------------------|-3-----5-3-------0---------------|



Am              D                 G               C
e|---------------------------------|---------------------------------|
B|---------------------------------|---------------------------------|
G|---------------------------------|---------------------------------|
D|-2-------------------------------|---------------------------------|
A|-----------------5-----------3---|-2-------------------------------|
E|---------------------------------|---------5-------3---------------|



Am              F                 E7              Am
e|---------------------------------|---------------------------------|
B|---------------------------------|---------------------------------|
G|---------------------------------|---------------------------------|
D|---------------------------------|---------------------------------|
A|-0-------3---2---3-------0-------|---------------------------------|
E|---------------------------------|-4---2---4-------5---------------|



e|---------------------------------|
B|---------------------------------|
G|---------------------------------|
D|---------------------------------|
A|---------------------------------|
E|---------------------------------|



VERSE

Am              D                 G               C
e|---------------------------------|---------------------------------|
B|---------------------------------|---------------------------------|
G|-7-B-9-----------7-----------5---|-4-------------------------------|
D|---------------------------------|---------7-------5---------------|
A|---------------------------------|---------------------------------|
E|---------------------------------|---------------------------------|



Am              F                 G               C
e|---------------------------------|---------------------------------|
B|---------------------------------|---------------------------------|
G|---------5---4---5---------------|---------------------------------|
D|-5-B-7-------------------7-------|-5-----7-5-----------------------|
A|---------------------------------|-------------5---7---------------|
E|---------------------------------|---------------------------------|



Am              D                 G               C
e|---------------------------------|---------------------------------|
B|---------------------------------|---------------------------------|
G|-7-B-9-----------7-----------575-|-4-------------------------------|
D|---------------------------------|---------7-------5---------------|
A|---------------------------------|---------------------------------|
E|---------------------------------|---------------------------------|



Am              F                 E7              Am
e|---------------------------------|---------------------------------|
B|---------------------------------|-5---5---5-------5---------------|
G|---------5---4---5---------------|---------------------------------|
D|-7-----------------------7-------|-6---4---6-------7---------------|
A|---------------------------------|---------------------------------|
E|---------------------------------|---------------------------------|



e|---------------------------------|
B|---------------------------------|
G|---------------------------------|
D|---------------------------------|
A|---------------------------------|
E|---------------------------------|



BRIDGE

A               D                 A
e|---------------------------------|---------------------------------|
B|---------------------------------|---------------------------------|
G|---------------------------------|---------------------------------|
D|---------------------------------|---------------------------------|
A|-4---------------5---------------|-7-----------------------4-------|
E|---------------------------------|-----------------------------5---|



D                 A
e|---------------------------------|---------------------------------|
B|---------------------------------|---------------------------------|
G|---------------------------------|---------------------------------|
D|---------------------------------|---------------------------------|
A|-----------------9---------------|-7-------------------------------|
E|-5-------------------------------|---------------------------------|



F#m             E                 Bm
e|---------------------------------|---------------------------------|
B|---------------------------------|---------------------------------|
G|---------------------------------|---------------------------------|
D|---------------------------------|---------------------------------|
A|-4---------------7---------------|-------------------------4---5---|
E|---------------------------------|-7-------------------------------|



E7                                Am
e|---------------------------------|---------------------------------|
B|---------------------------------|---------------------------------|
G|---------------------------------|---------------------------------|
D|---------------------------------|---------------------------------|
A|-5-------------------------------|---------------------------------|
E|-------------------------7---4---|-5-------------------------------|



D                 Am              D
e|-----------------------2---------|-----------------------2---------|
B|-------------------------3-------|-------------------------3-------|
G|-------5-------------------2-----|-------5-------------------2-----|
D|---7-------7-------4---------4---|---7-------7-------4---------4---|
A|-7---7-----------5---5-----------|-7---7-----------5---5-----------|
E|---------------------------------|---------------------------------|



VERSE

Am              D                 G               C
e|---------------------------------|---------------------------------|
B|---------------------------------|---------------------------------|
G|---------------------------------|---------------------------------|
D|-2-------------------------------|---------------------------------|
A|-----------------5-----------3---|-2-------------------------------|
E|---------------------------------|---------5-------3---------------|



Am              F                 G               C
e|---------------------------------|---------------------------------|
B|---------------------------------|---------------------------------|
G|---------------------------------|---------------------------------|
D|---------------------------------|---------------------------------|
A|-0-------3---2---3-------0-------|---------------------------------|
E|---------------------------------|-3-----5-3-------0---------------|



Am              D                 G               C
e|---------------------------------|---------------------------------|
B|---------------------------------|---------------------------------|
G|-7-B-9-----------7-----------575-|-4-------------------------------|
D|---------------------------------|---------7-------5---------------|
A|---------------------------------|---------------------------------|
E|---------------------------------|---------------------------------|



Am              F                 E7              Am
e|---------------------------------|---------------------------------|
B|---------------------------------|-5---5---5-------5---------------|
G|---------5---4---5---------------|---------------------------------|
D|-7-----------------------7-------|-6---4---6-------7---------------|
A|---------------------------------|---------------------------------|
E|---------------------------------|---------------------------------|



e|---------------------------------|
B|---------------------------------|
G|---------------------------------|
D|---------------------------------|
A|---------------------------------|
E|---------------------------------|



BRIDGE

A               D                 A
e|---------------------------------|---------------------------------|
B|---------------------------------|-5-------------------------------|
G|-6---------------7---------------|-------------------------6-------|
D|---------------------------------|-----------------------------7---|
A|---------------------------------|---------------------------------|
E|---------------------------------|---------------------------------|



D                 A
e|---------------------------------|---------------------------------|
B|-----------------5-B-7-----------|-5-------------------------------|
G|---------------------------------|---------------------------------|
D|-7-------------------------------|---------------------------------|
A|---------------------------------|---------------------------------|
E|---------------------------------|---------------------------------|



F#m             E                 Bm
e|---------------------------------|---------------------------------|
B|-----------------5---------------|---------------------------------|
G|-6-------------------------------|-4-------------------4---6---7---|
D|---------------------------------|---------------------------------|
A|---------------------------------|---------------------------------|
E|---------------------------------|---------------------------------|



E7                                Am
e|---------------------------------|---------------------------------|
B|---------------------------------|---------------------------------|
G|-7-----------------------4-------|---------------------------------|
D|-----------------------------6---|-7-------------------------------|
A|---------------------------------|---------------------------------|
E|---------------------------------|---------------------------------|



D                 Am              D
e|-----------------------2---------|-----------------------2---------|
B|-------------------------3-------|-------------------------3-------|
G|-------5-------------------2-----|-------5-------------------2-----|
D|---7-------7-------4---------4---|---7-------7-------4---------4---|
A|-7---7-----------5---5-----------|-7---7-----------5---5-----------|
E|---------------------------------|---------------------------------|



VERSE

Am              D                 G               C
e|---------------------------------|---------------------------------|
B|---------------------------------|---------------------------------|
G|-7-B-9-----------7-----------575-|-4-------------------------------|
D|---------------------------------|---------7-------5---------------|
A|---------------------------------|---------------------------------|
E|---------------------------------|---------------------------------|



Am              F                 G               C
e|---------------------------------|---------------------------------|
B|---------------------------------|---------------------------------|
G|---------5---4---5---------------|---------------------------------|
D|-7-----------------------7-------|-5-----7-5-----------------------|
A|---------------------------------|-------------5---7---------------|
E|---------------------------------|---------------------------------|



Am              D                 G               C
e|-10-B-12---------10----------8H10|-7-------5-----------------------|
B|---------------------------------|-----------------8---------------|
G|---------------------------------|---------------------------------|
D|---------------------------------|---------------------------------|
A|---------------------------------|---------------------------------|
E|---------------------------------|---------------------------------|



Am              F                 E7              Am
e|---------8---7---8---------------|---------------------------------|
B|-10----------------------10------|-9---7---9------10---------------|
G|---------------------------------|-9---9---9-------9---------------|
D|---------------------------------|---------------------------------|
A|---------------------------------|---------------------------------|
E|---------------------------------|---------------------------------|



OUTRO

Am              D                 Am              D
e|-----------------------2---------|-----------------------2---------|
B|-------------------------3-------|-------------------------3-------|
G|-------5-------------------2-----|-------5-------------------2-----|
D|---7-------7-------4---------4---|---7-------7-------4---------4---|
A|-7---7-----------5---5-----------|-7---7-----------5---5-----------|
E|---------------------------------|---------------------------------|



e|-----------------------2---------|---------------------------------|
B|-------------------------3-------|---------------------------------|
G|-------5-------------------2-----|-------------5-------------------|
D|---7-------7-------4---------4---|-----7---------------------------|
A|-7---7-----------5---5-----------|-7-------7-----------------------|
E|---------------------------------|---------------------------------|
 
 
Ventures - Love Is Blue :: indexed at Ultimate Guitar.
Love Is Blue tabs @ 911Tabs

About the artist behind Love Is Blue:

The Ventures are an American instrumental rock band formed in 1958, by Don Wilson and Bob Bogle, two Tacoma, Washington masonry workers. They have also contributed to the surf music genre, though they are not strictly a surf band. In 2008, they were inducted into the Rock and Roll Hall of Fame. [1]

Indexed at Wikipedia.

Show us your talent, perform Love Is Blue!

Here you can post a video or audio performance. Tell me more ...
Where can we find your performance? Tell me more ...
Your comment:
Please, log in to post your performance.