Artists by letter: A B C D E F G H I J K L M N O P Q R S T U V W X Y Z 0-9

 
Apache
APACHE

As recorded by The Ventures
(From the 1962 Album THE VENTURES PLAY TELSTAR)


Music by Jerry Lordan
Arranged by The Ventures
Transcribed by Slowhand


Gtr I (E A D G B E) - 'Don Wilson - Electric Guitar'
Gtr II (E A D G B E) - 'Nokie Edwards - Electric Guitar '


  Q=130
  N.C.         Am
 4/4
  Gtr I
  Wx4           W
|------------|-^0--------------------------|
|------------|-^1--------------------------|
|------------|-^2--------------------------|
|------------|-^2--------------------------|
|------------|-^0--------------------------|
|------------|-----------------------------|
|
| Gtr II
| Wx4           Q   E  E  E      +E   +Q
|------------|-----------------------------|
|------------|--------13-15b16==(15)r(15)--|
|------------|-----14----------------------|
|------------|-----------------------------|
|------------|-----------------------------|
|------------|-----------------------------|


  D                     Am
   W                     W
|-^2------------------|-^0--------------------------|
|-^3------------------|-^1--------------------------|
|-^2------------------|-^2--------------------------|
|-^0------------------|-^2--------------------------|
|---------------------|-^0--------------------------|
|---------------------|-----------------------------|
|
|  Q   E  E  E  E  Q     Q   E  E  E      +E   +Q
|-----------17-15-12--|-----------------------------|
|-----10-13-----------|--------13-15b16==(15)r(15)--|
|---------------------|-----14----------------------|
|---------------------|-----------------------------|
|---------------------|-----------------------------|
|---------------------|-----------------------------|


  D                        Am
   W                       E  S S E E E E E  E
|-^2-------------------||--0--0-0-0-0-0-0-0--0--|
|-^3-------------------||o-1--1-1-1-1-1-1-1--1--|
|-^2-------------------||--2--2-2-2-2-2-2-2--2--|
|-^0-------------------||--2--2-2-2-2-2-2-2--2--|
|----------------------||o-0--0-0-0-0-0-0-0--0--|
|----------------------||-----------------------|
|
|  Q   E  E  E  E  Q       H          Q   Q
|-----------17-15-12\--||-----------------------|
|-----10-13------------||o----------------------|
|----------------------||-----------------------|
|----------------------||--7\---------2S==7\----|
|----------------------||o----------------------|
|----------------------||-----------------------|


                                                      1.
  D                   Am
  E S S E E E E E E   E S S  E  E  E       E    E  E   E  S S  E E  E E E  E
|-2-2-2-2-2-2-2-2-2-|-0-0-0--0--0--0-------0----0--0-|-0--0-0--0-0--0-0-0--0--||
|-3-3-3-3-3-3-3-3-3-|-1-1-1--1--1--1-------1----1--1-|-1--1-1--1-1--1-1-1--1-o||
|-2-2-2-2-2-2-2-2-2-|-2-2-2--2--2--2-------2----2--2-|-2--2-2--2-2--2-2-2--2--||
|-0-0-0-0-0-0-0-0-0-|-2-2-2--2--2--2-------2----2--2-|-2--2-2--2-2--2-2-2--2--||
|-------------------|-0-0-0--0--0--0-------0----0--0-|-0--0-0--0-0--0-0-0--0-o||
|-------------------|--------------------------------|------------------------||
|
| H         Q   Q     Q      E  E  E      +E   +Q      E  E    E E  Q   Q
|-------------------|--------------------------------|--------10-8------------||
|-------------------|----------13-15b16==(15)r(15)---|---13--------10--------o||
|-------------------|-------14-----------------------|------------------------||
|-4---------2---0---|-2------------------------------|------------------2/----||
|-------------------|--------------------------------|-----------------------o||
|-------------------|--------------------------------|------------------------||


  2.
  Am                    Dm/F                  G
  E S S  E E  E E E E   E  S S E E E E E  E   E S S E E E E E E
|-0-0-0--0-0--0-0-0-0-|-1--1-1-1-1-1-1-1--1-|-3-3-3-3-3-3-3-3-3-|
|-1-1-1--1-1--1-1-1-1-|-3--3-3-3-3-3-3-3--3-|-0-0-0-0-0-0-0-0-0-|
|-2-2-2--2-2--2-2-2-2-|-2--2-2-2-2-2-2-2--2-|-0-0-0-0-0-0-0-0-0-|
|-2-2-2--2-2--2-2-2-2-|-3--3-3-3-3-3-3-3--3-|-0-0-0-0-0-0-0-0-0-|
|-0-0-0--0-0--0-0-0-0-|---------------------|-2-2-2-2-2-2-2-2-2-|
|---------------------|---------------------|-3-3-3-3-3-3-3-3-3-|
|
| E E    E E  Q   Q     H          Q   Q      H         Q   Q
|---8---10-8----------|---------------------|-------------------|
|------------10-------|---------------------|-------------------|
|---------------------|-7\---------2S==7\---|-4---------2---0---|
|-----------------7---|---------------------|-------------------|
|---------------------|---------------------|-------------------|
|---------------------|---------------------|-------------------|


  Dm/F
  E S S  E  E  E       E        E E
|-1-1-1--1--1--1-------1--------1-1-|
|-3-3-3--3--3--3-------3--------3-3-|
|-2-2-2--2--2--2-------2--------2-2-|
|-3-3-3--3--3--3-------3--------3-3-|
|-----------------------------------|
|-----------------------------------|
|
| Q      E  E  E      +S   +S   Q
|-------10-13-15b16==(15)r(15)-13---|
|-----------------------------------|
|-2---------------------------------|
|-----------------------------------|
|-----------------------------------|
|-----------------------------------|


                           Am
  E  S S  E  E  E E E  E   E  S S E E E E E  E
|-1--1-1--1--1--1-1-1--1-|-0--0-0-0-0-0-0-0--0-|
|-3--3-3--3--3--3-3-3--3-|-1--1-1-1-1-1-1-1--1-|
|-2--2-2--2--2--2-2-2--2-|-2--2-2-2-2-2-2-2--2-|
|-3--3-3--3--3--3-3-3--3-|-2--2-2-2-2-2-2-2--2-|
|------------------------|-0--0-0-0-0-0-0-0--0-|
|------------------------|---------------------|
|
| E  E    E  E  Q   Q      H          Q   Q
|---13---15-13-----------|---------------------|
|--------------15--------|---------------------|
|------------------------|---------------------|
|-------------------2/---|-7\---------2S==7\---|
|------------------------|---------------------|
|------------------------|---------------------|


  D                   Am
  E S S E E E E E E   E S S  E  E  E       E    E  E   E  S S  E E  E E E E
|-2-2-2-2-2-2-2-2-2-|-0-0-0--0--0--0-------0----0--0-|-0--0-0--0-0--0-0-0-0-||
|-3-3-3-3-3-3-3-3-3-|-1-1-1--1--1--1-------1----1--1-|-1--1-1--1-1--1-1-1-1-||
|-2-2-2-2-2-2-2-2-2-|-2-2-2--2--2--2-------2----2--2-|-2--2-2--2-2--2-2-2-2-||
|-0-0-0-0-0-0-0-0-0-|-2-2-2--2--2--2-------2----2--2-|-2--2-2--2-2--2-2-2-2-||
|-------------------|-0-0-0--0--0--0-------0----0--0-|-0--0-0--0-0--0-0-0-0-||
|-------------------|--------------------------------|----------------------||
|
| H         Q   Q     Q      E  E  E      +E   +Q      E  E    E E  H
|-------------------|--------------------------------|--------10-8----------||
|-------------------|----------13-15b16==(15)r(15)---|---13--------10-------||
|-------------------|-------14-----------------------|----------------------||
|-4---------2---0---|-2------------------------------|----------------------||
|-------------------|--------------------------------|----------------------||
|-------------------|--------------------------------|----------------------||


  F                                                 Am
  E S S E S S E S S E S S   E S S E S S E S S E E   E  S S E E E E E E
|-1-1-1-1-1-1-1-1-1-1-1-1-|-1-1-1-1-1-1-1-1-1-1-1-|-0--0-0-0-0-0-0-0-0--|
|-1-1-1-1-1-1-1-1-1-1-1-1-|-1-1-1-1-1-1-1-1-1-1-1-|-1--1-1-1-1-1-1-1-1--|
|-2-2-2-2-2-2-2-2-2-2-2-2-|-2-2-2-2-2-2-2-2-2-2-2-|-2--2-2-2-2-2-2-2-2--|
|-3-3-3-3-3-3-3-3-3-3-3-3-|-3-3-3-3-3-3-3-3-3-3-3-|-2--2-2-2-2-2-2-2-2--|
|-3-3-3-3-3-3-3-3-3-3-3-3-|-3-3-3-3-3-3-3-3-3-3-3-|-0--0-0-0-0-0-0-0-0--|
|-1-1-1-1-1-1-1-1-1-1-1-1-|-1-1-1-1-1-1-1-1-1-1-1-|---------------------|
|
| PM--------------------------------------------|
| E S S E S S E S S E S S   E S S E S S E S S E E   H          H
|-------------------------|-----------------------|---------------------|
|-------------------------|-----------------------|---------------------|
|-------------------------|-----------------------|---------------------|
|-------------------------|-----------------------|---------------------|
|---8-8-8-8-8---8-8-8-8-8-|---8-8-8-8-8---8-8-8-8-|-7\---------0--------|
|-8-----------8-----------|-8-----------8---------|---------------------|


                        F
   E  S S E E E E E E   E S S E S S E S S E S S   E S S E S S E S S E E
|--0--0-0-0-0-0-0-0-0-|-1-1-1-1-1-1-1-1-1-1-1-1-|-1-1-1-1-1-1-1-1-1-1-1--|
|--1--1-1-1-1-1-1-1-1-|-1-1-1-1-1-1-1-1-1-1-1-1-|-1-1-1-1-1-1-1-1-1-1-1--|
|--2--2-2-2-2-2-2-2-2-|-2-2-2-2-2-2-2-2-2-2-2-2-|-2-2-2-2-2-2-2-2-2-2-2--|
|--2--2-2-2-2-2-2-2-2-|-3-3-3-3-3-3-3-3-3-3-3-3-|-3-3-3-3-3-3-3-3-3-3-3--|
|--0--0-0-0-0-0-0-0-0-|-3-3-3-3-3-3-3-3-3-3-3-3-|-3-3-3-3-3-3-3-3-3-3-3--|
|---------------------|-1-1-1-1-1-1-1-1-1-1-1-1-|-1-1-1-1-1-1-1-1-1-1-1--|
|
|                       PM--------------------------------------------|
| +W                    E S S E S S E S S E S S   E S S E S S E S S E E
|---------------------|-------------------------|------------------------|
|---------------------|-------------------------|------------------------|
|---------------------|-------------------------|------------------------|
|---------------------|-------------------------|------------------------|
|-(0)-----------------|---8-8-8-8-8---8-8-8-8-8-|---8-8-8-8-8---8-8-8-8--|
|---------------------|-8-----------8-----------|-8-----------8----------|


  Am                                       F
  E S S E E E E E E   E S S E E E E E E    E S S E E E E E E
|-0-0-0-0-0-0-0-0-0-|-0-0-0-0-0-0-0-0-0-||-1-1-1-1-1-1-1-1-1-|
|-1-1-1-1-1-1-1-1-1-|-1-1-1-1-1-1-1-1-1-||-1-1-1-1-1-1-1-1-1-|
|-2-2-2-2-2-2-2-2-2-|-2-2-2-2-2-2-2-2-2-||-2-2-2-2-2-2-2-2-2-|
|-2-2-2-2-2-2-2-2-2-|-2-2-2-2-2-2-2-2-2-||-3-3-3-3-3-3-3-3-3-|
|-0-0-0-0-0-0-0-0-0-|-0-0-0-0-0-0-0-0-0-||-3-3-3-3-3-3-3-3-3-|
|-------------------|-------------------||-1-1-1-1-1-1-1-1-1-|
|
| W                   W                    Q     Q   Q   Q
|-------------------|-------------------||-------------------|
|-------------------|-------------------||---------------1---|
|-------------------|-------------------||-----------2-------|
|-------------------|-------------------||-------3-----------|
|-7-----------------|-------------------||-------------------|
|-------------------|-------------------||-------------------|


  G                   C             Am
  E S S E E E E E E   E S   S E   E E S S E E    E S    S E    E  E E E E
|-3-3-3-3-3-3-3-3-3-|-0-0---0-0---0-0-0-0-0-0-|--0-0----0-0----0--0-0-0-0--|
|-3-3-3-3-3-3-3-3-3-|-1-1---1-1---1-1-1-1-1-1-|--1-1----1-1----1--1-1-1-1--|
|-4-4-4-4-4-4-4-4-4-|-0-0---0-0---0-2-2-2-2-2-|--2-2----2-2----2--2-2-2-2--|
|-5-5-5-5-5-5-5-5-5-|-2-2---2-2---2-2-2-2-2-2-|--2-2----2-2----2--2-2-2-2--|
|-5-5-5-5-5-5-5-5-5-|-3-3---3-3---3-0-0-0-0-0-|--0-0----0-0----0--0-0-0-0--|
|-3-3-3-3-3-3-3-3-3-|-------------------------|----------------------------|
|
|                     |----3----|                |-----3-----|
| H         Q   Q     Q   Q     Q   H            Q    Q      Q    H
|-------------------|-0-----------------------|-12---10--------------------|
|-0---------1---3---|-----3-----1-------------|-------------13---10--------|
|-------------------|---------------2---------|----------------------------|
|-------------------|-------------------------|----------------------------|
|-------------------|-------------------------|----------------------------|
|-------------------|-------------------------|----------------------------|


  F                   G                   C
  E S S E E E E E E   E S S E E E E E E   E S S E E  E E    E   E
|-1-1-1-1-1-1-1-1-1-|-3-3-3-3-3-3-3-3-3-|-0-0-0-0-0--0-0----0---0--|
|-1-1-1-1-1-1-1-1-1-|-3-3-3-3-3-3-3-3-3-|-1-1-1-1-1--1-1----1---1--|
|-2-2-2-2-2-2-2-2-2-|-4-4-4-4-4-4-4-4-4-|-0-0-0-0-0--0-0----0---0--|
|-3-3-3-3-3-3-3-3-3-|-5-5-5-5-5-5-5-5-5-|-2-2-2-2-2--2-2----2---2--|
|-3-3-3-3-3-3-3-3-3-|-5-5-5-5-5-5-5-5-5-|-3-3-3-3-3--3-3----3---3--|
|-1-1-1-1-1-1-1-1-1-|-3-3-3-3-3-3-3-3-3-|--------------------------|
|
|                                                    |---3----|
| Q     Q   Q   Q     H         Q   Q     H          Q    Q   Q
|-------------------|-------------------|-----------12---10---8----|
|---------------1---|-0---------1---3---|--------------------------|
|-----------2-------|-------------------|-0------------------------|
|-------3-----------|-------------------|--------------------------|
|-------------------|-------------------|--------------------------|
|-------------------|-------------------|--------------------------|


  C7                            F                   G
  E S   S E   E E E   E   S S   E S S E E E E E E   E S S E E E E E E
|-0-0---0-0---0-0-0---0---0-0-|-1-1-1-1-1-1-1-1-1-|-3-3-3-3-3-3-3-3-3--|
|-1-1---1-1---1-1-1---1---1-1-|-1-1-1-1-1-1-1-1-1-|-3-3-3-3-3-3-3-3-3--|
|-3-3---3-3---3-3-3---3---3-3-|-2-2-2-2-2-2-2-2-2-|-4-4-4-4-4-4-4-4-4--|
|-2-2---2-2---2-2-2---2---2-2-|-3-3-3-3-3-3-3-3-3-|-5-5-5-5-5-5-5-5-5--|
|-3-3---3-3---3-3-3---3---3-3-|-3-3-3-3-3-3-3-3-3-|-5-5-5-5-5-5-5-5-5--|
|-----------------------------|-1-1-1-1-1-1-1-1-1-|-3-3-3-3-3-3-3-3-3--|
|
| |----3----|   |---3---|
| Q   Q     Q   Q   Q   Q       Q     Q   Q   Q     H         Q   Q
|-6---3-----------------------|-------------------|--------------------|
|-----------5---3-------------|---------------1---|-0---------1---3----|
|-------------------5---3-----|-2---------2-------|--------------------|
|-----------------------------|-------3-----------|--------------------|
|-----------------------------|-------------------|--------------------|
|-----------------------------|-------------------|--------------------|


  C             Am
  E S   S E   E E S S E E
|-0-0---0-0---0-0-0-0-0-0-|
|-1-1---1-1---1-1-1-1-1-1-|
|-0-0---0-0---0-2-2-2-2-2-|
|-2-2---2-2---2-2-2-2-2-2-|
|-3-3---3-3---3-0-0-0-0-0-|
|-------------------------|
|
| |----3----|
| Q   Q     Q   H
|-0-----------------------|
|-----3-----1-------------|
|---------------2---------|
|-------------------------|
|-------------------------|
|-------------------------|


                               F
   E S    S E    E  E E E E    E S S E S S E S S E S S
|--0-0----0-0----0--0-0-0-0-||-1-1-1-1-1-1-1-1-1-1-1-1-|
|--1-1----1-1----1--1-1-1-1-||-1-1-1-1-1-1-1-1-1-1-1-1-|
|--2-2----2-2----2--2-2-2-2-||-2-2-2-2-2-2-2-2-2-2-2-2-|
|--2-2----2-2----2--2-2-2-2-||-3-3-3-3-3-3-3-3-3-3-3-3-|
|--0-0----0-0----0--0-0-0-0-||-3-3-3-3-3-3-3-3-3-3-3-3-|
|---------------------------||-1-1-1-1-1-1-1-1-1-1-1-1-|
|
|                              PM--------------------|
|  |-----3-----|
|  Q    Q      Q    H          E S S E S S E S S E S S
|-12---10-------------------||-------------------------|
|-------------13---10-------||-------------------------|
|---------------------------||-------------------------|
|---------------------------||---3-3-3-3-3---3-3-3-3-3-|
|---------------------------||-3-----------3-----------|
|---------------------------||-------------------------|


                          Am
  E S S E S S E S S E E   E  S S E E E E E E    E  S S E E E E E E
|-1-1-1-1-1-1-1-1-1-1-1-|-0--0-0-0-0-0-0-0-0-|--0--0-0-0-0-0-0-0-0--|
|-1-1-1-1-1-1-1-1-1-1-1-|-1--1-1-1-1-1-1-1-1-|--1--1-1-1-1-1-1-1-1--|
|-2-2-2-2-2-2-2-2-2-2-2-|-2--2-2-2-2-2-2-2-2-|--2--2-2-2-2-2-2-2-2--|
|-3-3-3-3-3-3-3-3-3-3-3-|-2--2-2-2-2-2-2-2-2-|--2--2-2-2-2-2-2-2-2--|
|-3-3-3-3-3-3-3-3-3-3-3-|-0--0-0-0-0-0-0-0-0-|--0--0-0-0-0-0-0-0-0--|
|-1-1-1-1-1-1-1-1-1-1-1-|--------------------|----------------------|
|
| PM------------------|
| E S S E S S E S S E E   H          H         +W
|-----------------------|--------------------|----------------------|
|-----------------------|--------------------|----------------------|
|-----------------------|--------------------|----------------------|
|---3-3-3-3-3---3-3-3-3-|-2\-----------------|----------------------|
|-3-----------3---------|------------0-------|-(0)------------------|
|-----------------------|--------------------|----------------------|


  F                                                 Am
  E S S E S S E S S E S S   E S S E S S E S S E E   E  S S E E E E E E
|-1-1-1-1-1-1-1-1-1-1-1-1-|-1-1-1-1-1-1-1-1-1-1-1-|-0--0-0-0-0-0-0-0-0--|
|-1-1-1-1-1-1-1-1-1-1-1-1-|-1-1-1-1-1-1-1-1-1-1-1-|-1--1-1-1-1-1-1-1-1--|
|-2-2-2-2-2-2-2-2-2-2-2-2-|-2-2-2-2-2-2-2-2-2-2-2-|-2--2-2-2-2-2-2-2-2--|
|-3-3-3-3-3-3-3-3-3-3-3-3-|-3-3-3-3-3-3-3-3-3-3-3-|-2--2-2-2-2-2-2-2-2--|
|-3-3-3-3-3-3-3-3-3-3-3-3-|-3-3-3-3-3-3-3-3-3-3-3-|-0--0-0-0-0-0-0-0-0--|
|-1-1-1-1-1-1-1-1-1-1-1-1-|-1-1-1-1-1-1-1-1-1-1-1-|---------------------|
|
| PM--------------------------------------------|
| E S S E S S E S S E S S   E S S E S S E S S E E   H          H
|-------------------------|-----------------------|---------------------|
|-------------------------|-----------------------|---------------------|
|-------------------------|-----------------------|---------------------|
|---3-3-3-3-3---3-3-3-3-3-|---3-3-3-3-3---3-3-3-3-|-2\------------------|
|-3-----------3-----------|-3-----------3---------|------------0--------|
|-------------------------|-----------------------|---------------------|


                          Am
   E  S S E E E E  E E     E     E     E     E     E     E     E     E
|--0--0-0-0-0-0-0--0-0-||--0-----------------0-----0-----------------0----|
|--1--1-1-1-1-1-1--1-1-||--1-----------------1-----1-----------------1----|
|--2--2-2-2-2-2-2--2-2-||--2-----------------2-----2-----------------2----|
|--2--2-2-2-2-2-2--2-2-||--2-----------------2-----2-----------------2----|
|--0--0-0-0-0-0-0--0-0-||--0-----------------0-----0-----------------0----|
|----------------------||-------------------------------------------------|
|
| +H.              Q       S  S  S  S  S  S  S  S  S  S  S  S  S  S  S  S
|-----------------12---||-17-17-17-17-17-17-17-17-------------17-17-17-17-|
|----------------------||-------------------------17-17-17-17-------------|
|----------------------||-------------------------------------------------|
|----------------------||-------------------------------------------------|
|-(0)------------------||-------------------------------------------------|
|----------------------||-------------------------------------------------|


  D
   E     E     E     E     E     E     E     E
|--2-----------------2-----2-----------------2-----|
|--3-----------------3-----3-----------------3-----|
|--2-----------------2-----2-----------------2-----|
|--0-----------------0-----0-----------------0-----|
|--------------------------------------------------|
|--------------------------------------------------|
|
|  S  S  S  S  S  S  S  S  S  S  S  S  S  S  S  S
|-14-14-14-14-14-14-14-14--------------------------|
|-------------------------17-17-17-17-15-15-15-15--|
|--------------------------------------------------|
|--------------------------------------------------|
|--------------------------------------------------|
|--------------------------------------------------|


  Am
   E     E     E     E     E     E     E     E
|--0-----------------0-----0-----------------0----|
|--1-----------------1-----1-----------------1----|
|--2-----------------2-----2-----------------2----|
|--2-----------------2-----2-----------------2----|
|--0-----------------0-----0-----------------0----|
|-------------------------------------------------|
|
|  S  S  S  S  S  S  S  S  S  S  S  S  S  S  S  S
|-12-12-12-12-12-12-12-12-12-12-12-12-12-12-12-12-|
|-------------------------------------------------|
|-------------------------------------------------|
|-------------------------------------------------|
|-------------------------------------------------|
|-------------------------------------------------|


   E     E     E     E     E     E     E     E       E     E     E     E     E     E     E     E
|--0-----------------0-----0-----------------0----|--0-----------------0-----0-----------------0----|
|--1-----------------1-----1-----------------1----|--1-----------------1-----1-----------------1----|
|--2-----------------2-----2-----------------2----|--2-----------------2-----2-----------------2----|
|--2-----------------2-----2-----------------2----|--2-----------------2-----2-----------------2----|
|--0-----------------0-----0-----------------0----|--0-----------------0-----0-----------------0----|
|-------------------------------------------------|-------------------------------------------------|
|
|  S  S  S  S  S  S  S  S  S  S  S  S  S  S  S  S    S  S  S  S  S  S  S  S  S  S  S  S  S  S  S  S
|-12-12-12-12-12-12-12-12-12-12-12-12-12-12-12-12-|-17-17-17-17-17-17-17-17-------------17-17-17-17-|
|-------------------------------------------------|-------------------------17-17-17-17-------------|
|-------------------------------------------------|-------------------------------------------------|
|-------------------------------------------------|-------------------------------------------------|
|-------------------------------------------------|-------------------------------------------------|
|-------------------------------------------------|-------------------------------------------------|


  D
   E     E     E     E     E     E     E     E
|--2-----------------2-----2-----------------2----|
|--3-----------------3-----3-----------------3----|
|--2-----------------2-----2-----------------2----|
|--0-----------------0-----0-----------------0----|
|-------------------------------------------------|
|-------------------------------------------------|
|
|  S  S  S  S  S  S  S  S  S  S  S  S  S  S  S  S
|-14-14-14-14-14-14-14-14-------------------------|
|-------------------------17-17-17-17-15-15-15-15-|
|-------------------------------------------------|
|-------------------------------------------------|
|-------------------------------------------------|
|-------------------------------------------------|


  Am
   E     E     E     E     E     E     E     E       E E Q  H
|--0-----------------0-----0-----------------0----|--0---------------|
|--1-----------------1-----1-----------------1----|--1---------------|
|--2-----------------2-----2-----------------2----|--2---------------|
|--2-----------------2-----2-----------------2----|--2---------------|
|--0-----------------0-----0-----------------0----|--0---------------|
|-------------------------------------------------|------------------|
|
|  S  S  S  S  S  S  S  S  S  S  S  S  S  S  S  S    E E Q  Q  E E
|-12-12-12-12-12-12-12-12-12-12-12-12-12-12-12-12-|-12---------------|
|-------------------------------------------------|------------------|
|-------------------------------------------------|--------------2---|
|-------------------------------------------------|------------------|
|-------------------------------------------------|------------------|
|-------------------------------------------------|------------------|


  Dm/F                G                   Dm/F
  E S S E E E E E E   E S S E E E E E E   E S S E E E E E E
|-1-1-1-1-1-1-1-1-1-|-3-3-3-3-3-3-3-3-3-|-1-1-1-1-1-1-1-1-1-|
|-3-3-3-3-3-3-3-3-3-|-0-0-0-0-0-0-0-0-0-|-3-3-3-3-3-3-3-3-3-|
|-2-2-2-2-2-2-2-2-2-|-0-0-0-0-0-0-0-0-0-|-2-2-2-2-2-2-2-2-2-|
|-3-3-3-3-3-3-3-3-3-|-0-0-0-0-0-0-0-0-0-|-3-3-3-3-3-3-3-3-3-|
|-------------------|-2-2-2-2-2-2-2-2-2-|-------------------|
|-------------------|-3-3-3-3-3-3-3-3-3-|-------------------|
|
| H         Q   Q     H         Q   Q     W
|-------------------|-------------------|-------------------|
|-3-------------3---|-0-----------------|-------------------|
|-----------2-------|-----------2---0---|-2-----------------|
|-------------------|-------------------|-------------------|
|-------------------|-------------------|-------------------|
|-------------------|-------------------|-------------------|


                          Am
   E  S S E E E E  E  E    E     E     E     E     E     E     E     E
|--1--1-1-1-1-1-1--1--1-|--0-----------------0-----0-----------------0----|
|--3--3-3-3-3-3-3--3--3-|--1-----------------1-----1-----------------1----|
|--2--2-2-2-2-2-2--2--2-|--2-----------------2-----2-----------------2----|
|--3--3-3-3-3-3-3--3--3-|--2-----------------2-----2-----------------2----|
|-----------------------|--0-----------------0-----0-----------------0----|
|-----------------------|-------------------------------------------------|
|
| +H.              Q       S  S  S  S  S  S  S  S  S  S  S  S  S  S  S  S
|-----------------12/---|-17-17-17-17-17-17-17-17-------------17-17-17-17-|
|-----------------------|-------------------------17-17-17-17-------------|
|-(2)-------------------|-------------------------------------------------|
|-----------------------|-------------------------------------------------|
|-----------------------|-------------------------------------------------|
|-----------------------|-------------------------------------------------|


  D
   E     E     E     E     E     E     E     E
|--2-----------------2-----2-----------------2-----|
|--3-----------------3-----3-----------------3-----|
|--2-----------------2-----2-----------------2-----|
|--0-----------------0-----0-----------------0-----|
|--------------------------------------------------|
|--------------------------------------------------|
|
|  S  S  S  S  S  S  S  S  S  S  S  S  S  S  S  S
|-14-14-14-14-14-14-14-14--------------------------|
|-------------------------17-17-17-17-15-15-15-15--|
|--------------------------------------------------|
|--------------------------------------------------|
|--------------------------------------------------|
|--------------------------------------------------|


  Am
   E     E     E     E     E     E     E     E
|--0-----------------0-----0-----------------0----|
|--1-----------------1-----1-----------------1----|
|--2-----------------2-----2-----------------2----|
|--2-----------------2-----2-----------------2----|
|--0-----------------0-----0-----------------0----|
|-------------------------------------------------|
|
|  S  S  S  S  S  S  S  S  S  S  S  S  S  S  S  S
|-12-12-12-12-12-12-12-12-12-12-12-12-12-12-12-12-|
|-------------------------------------------------|
|-------------------------------------------------|
|-------------------------------------------------|
|-------------------------------------------------|
|-------------------------------------------------|


                        F
   E S S E E E E E E    E S S E E E E E E
|--0-0-0-0-0-0-0-0-0-||-1-1-1-1-1-1-1-1-1--|
|--1-1-1-1-1-1-1-1-1-||-1-1-1-1-1-1-1-1-1--|
|--2-2-2-2-2-2-2-2-2-||-2-2-2-2-2-2-2-2-2--|
|--2-2-2-2-2-2-2-2-2-||-3-3-3-3-3-3-3-3-3--|
|--0-0-0-0-0-0-0-0-0-||-3-3-3-3-3-3-3-3-3--|
|--------------------||-1-1-1-1-1-1-1-1-1--|
|
|  E E   Q   Q   Q      Q     Q   Q   Q
|-12-----------------||--------------------|
|--------------------||---------------1----|
|--------------------||-----------2--------|
|--------------------||-------3------------|
|--------------------||--------------------|
|--------------------||--------------------|


  G                   C             Am
  E S S E E E E E E   E S   S E   E E S S E E    E S    S E    E  E E E E
|-3-3-3-3-3-3-3-3-3-|-0-0---0-0---0-0-0-0-0-0-|--0-0----0-0----0--0-0-0-0--|
|-3-3-3-3-3-3-3-3-3-|-1-1---1-1---1-1-1-1-1-1-|--1-1----1-1----1--1-1-1-1--|
|-4-4-4-4-4-4-4-4-4-|-0-0---0-0---0-2-2-2-2-2-|--2-2----2-2----2--2-2-2-2--|
|-5-5-5-5-5-5-5-5-5-|-2-2---2-2---2-2-2-2-2-2-|--2-2----2-2----2--2-2-2-2--|
|-5-5-5-5-5-5-5-5-5-|-3-3---3-3---3-0-0-0-0-0-|--0-0----0-0----0--0-0-0-0--|
|-3-3-3-3-3-3-3-3-3-|-------------------------|----------------------------|
|
|                     |----3----|                |-----3-----|
| H         Q   Q     Q   Q     Q   H            Q    Q      Q    H
|-------------------|-0-----------------------|-12---10--------------------|
|-0---------1---3---|-----3-----1-------------|-------------13---10--------|
|-------------------|---------------2---------|----------------------------|
|-------------------|-------------------------|----------------------------|
|-------------------|-------------------------|----------------------------|
|-------------------|-------------------------|----------------------------|


  F                   G                   C
  E S S E E E E E E   E S S E E E E E E   E S S E E  E E    E   E
|-1-1-1-1-1-1-1-1-1-|-3-3-3-3-3-3-3-3-3-|-0-0-0-0-0--0-0----0---0--|
|-1-1-1-1-1-1-1-1-1-|-3-3-3-3-3-3-3-3-3-|-1-1-1-1-1--1-1----1---1--|
|-2-2-2-2-2-2-2-2-2-|-4-4-4-4-4-4-4-4-4-|-0-0-0-0-0--0-0----0---0--|
|-3-3-3-3-3-3-3-3-3-|-5-5-5-5-5-5-5-5-5-|-2-2-2-2-2--2-2----2---2--|
|-3-3-3-3-3-3-3-3-3-|-5-5-5-5-5-5-5-5-5-|-3-3-3-3-3--3-3----3---3--|
|-1-1-1-1-1-1-1-1-1-|-3-3-3-3-3-3-3-3-3-|--------------------------|
|
|                                                    |---3----|
| Q     Q   Q   Q     H         Q   Q     H          Q    Q   Q
|-------------------|-------------------|-----------12---10---8----|
|---------------1---|-0---------1---3---|--------------------------|
|-----------2-------|-------------------|-0------------------------|
|-------3-----------|-------------------|--------------------------|
|-------------------|-------------------|--------------------------|
|-------------------|-------------------|--------------------------|


                                F                   G
  E S   S E   E E E   E   S S   E S S E E E E E E   E S S E E E E E E
|-0-0---0-0---0-0-0---0---0-0-|-1-1-1-1-1-1-1-1-1-|-3-3-3-3-3-3-3-3-3--|
|-1-1---1-1---1-1-1---1---1-1-|-1-1-1-1-1-1-1-1-1-|-3-3-3-3-3-3-3-3-3--|
|-3-3---3-3---3-3-3---3---3-3-|-2-2-2-2-2-2-2-2-2-|-4-4-4-4-4-4-4-4-4--|
|-2-2---2-2---2-2-2---2---2-2-|-3-3-3-3-3-3-3-3-3-|-5-5-5-5-5-5-5-5-5--|
|-3-3---3-3---3-3-3---3---3-3-|-3-3-3-3-3-3-3-3-3-|-5-5-5-5-5-5-5-5-5--|
|-----------------------------|-1-1-1-1-1-1-1-1-1-|-3-3-3-3-3-3-3-3-3--|
|
| |----3----|   |---3---|
| Q   Q     Q   Q   Q   Q       Q     Q   Q   Q     H         Q   Q
|-6---3-----------------------|-------------------|--------------------|
|-----------5---3-------------|---------------1---|-0---------1---3----|
|-------------------5---3-----|-2---------2-------|--------------------|
|-----------------------------|-------3-----------|--------------------|
|-----------------------------|-------------------|--------------------|
|-----------------------------|-------------------|--------------------|


  C             Am
  E S   S E   E E S S E E
|-0-0---0-0---0-0-0-0-0-0-|
|-1-1---1-1---1-1-1-1-1-1-|
|-0-0---0-0---0-2-2-2-2-2-|
|-2-2---2-2---2-2-2-2-2-2-|
|-3-3---3-3---3-0-0-0-0-0-|
|-------------------------|
|
| |----3----|
| Q   Q     Q   H
|-0-----------------------|
|-----3-----1-------------|
|---------------2---------|
|-------------------------|
|-------------------------|
|-------------------------|


                               F
   E S    S E    E  E E E E    E S S E S S E S S E S S
|--0-0----0-0----0--0-0-0-0-||-1-1-1-1-1-1-1-1-1-1-1-1-|
|--1-1----1-1----1--1-1-1-1-||-1-1-1-1-1-1-1-1-1-1-1-1-|
|--2-2----2-2----2--2-2-2-2-||-2-2-2-2-2-2-2-2-2-2-2-2-|
|--2-2----2-2----2--2-2-2-2-||-3-3-3-3-3-3-3-3-3-3-3-3-|
|--0-0----0-0----0--0-0-3-3-||-3-3-3-3-3-3-3-3-3-3-3-3-|
|---------------------------||-1-1-1-1-1-1-1-1-1-1-1-1-|
|
|                              PM--------------------|
|  |-----3-----|
|  Q    Q      Q    H          E S S E S S E S S E S S
|-12---10-------------------||-------------------------|
|-------------13---10-------||-------------------------|
|---------------------------||-------------------------|
|---------------------------||---3-3-3-3-3---3-3-3-3-3-|
|---------------------------||-3-----------3-----------|
|---------------------------||-------------------------|


                          Am
  E S S E S S E S S E E   E  S S E E E E E E    E  S S E E E E E E
|-1-1-1-1-1-1-1-1-1-1-1-|-0--0-0-0-0-0-0-0-0-|--0--0-0-0-0-0-0-0-0--|
|-1-1-1-1-1-1-1-1-1-1-1-|-1--1-1-1-1-1-1-1-1-|--1--1-1-1-1-1-1-1-1--|
|-2-2-2-2-2-2-2-2-2-2-2-|-2--2-2-2-2-2-2-2-2-|--2--2-2-2-2-2-2-2-2--|
|-3-3-3-3-3-3-3-3-3-3-3-|-2--2-2-2-2-2-2-2-2-|--2--2-2-2-2-2-2-2-2--|
|-3-3-3-3-3-3-3-3-3-3-3-|-0--0-0-0-0-0-0-0-0-|--0--0-0-0-0-0-0-0-0--|
|-1-1-1-1-1-1-1-1-1-1-1-|--------------------|----------------------|
|
| PM------------------|
| E S S E S S E S S E E   H          H         +W
|-----------------------|--------------------|----------------------|
|-----------------------|--------------------|----------------------|
|-----------------------|--------------------|----------------------|
|---3-3-3-3-3---3-3-3-3-|-2\-----------------|----------------------|
|-3-----------3---------|------------0-------|-(0)------------------|
|-----------------------|--------------------|----------------------|


  F                                                 Am
  E S S E S S E S S E S S   E S S E S S E S S E E   E  S S E E E E E E
|-1-1-1-1-1-1-1-1-1-1-1-1-|-1-1-1-1-1-1-1-1-1-1-1-|-0--0-0-0-0-0-0-0-0--|
|-1-1-1-1-1-1-1-1-1-1-1-1-|-1-1-1-1-1-1-1-1-1-1-1-|-1--1-1-1-1-1-1-1-1--|
|-2-2-2-2-2-2-2-2-2-2-2-2-|-2-2-2-2-2-2-2-2-2-2-2-|-2--2-2-2-2-2-2-2-2--|
|-3-3-3-3-3-3-3-3-3-3-3-3-|-3-3-3-3-3-3-3-3-3-3-3-|-2--2-2-2-2-2-2-2-2--|
|-3-3-3-3-3-3-3-3-3-3-3-3-|-3-3-3-3-3-3-3-3-3-3-3-|-0--0-0-0-0-0-0-0-0--|
|-1-1-1-1-1-1-1-1-1-1-1-1-|-1-1-1-1-1-1-1-1-1-1-1-|---------------------|
|
| PM--------------------------------------------|
| E S S E S S E S S E S S   E S S E S S E S S E E   H          H
|-------------------------|-----------------------|---------------------|
|-------------------------|-----------------------|---------------------|
|-------------------------|-----------------------|---------------------|
|---3-3-3-3-3---3-3-3-3-3-|---3-3-3-3-3---3-3-3-3-|-2\------------------|
|-3-----------3-----------|-3-----------3---------|------------0--------|
|-------------------------|-----------------------|---------------------|


   E  S S E E E E E E      W                             W                    5x
|--0--0-0-0-0-0-0-0-0-||--^0--------------------------|-^2--------------------||
|--1--1-1-1-1-1-1-1-1-||o-^1--------------------------|-^3-------------------o||
|--2--2-2-2-2-2-2-2-2-||--^2--------------------------|-^2--------------------||
|--2--2-2-2-2-2-2-2-2-||--^2--------------------------|-^0--------------------||
|--0--0-0-0-0-0-0-0-0-||o-^0--------------------------|----------------------o||
|---------------------||------------------------------|-----------------------||
|
| +W                       Q   E  E  E      +E   +Q      Q   E  E  E  E  Q    5x
|---------------------||------------10b11==(10)r(10)--|-----------17-15-12----||
|---------------------||o-----10-13-------------------|-----10-13------------o||
|---------------------||------------------------------|-----------------------||
|---------------------||------------------------------|-----------------------||
|-(0)-----------------||o-----------------------------|----------------------o||
|---------------------||------------------------------|-----------------------||


Duration Legend
---------------
W - whole; H - half; Q - quarter; E - 8th; S - 16th; T - 32nd; X - 64th; a - acciaccatura
+ - note tied to previous; . - note dotted; .. - note double dotted
Uncapitalized letters represent notes that are staccato (1/2 duration)
Irregular groupings are notated above the duration line
Duration letters will always appear directly above the note/fret number it represents the
duration for.  Duration letters with no fret number below them represent rests.  Multi-
bar rests are notated in the form Wxn, where n is the number of bars to rest for.  Low
melody durations appear below the staff

Tablature Legend
----------------
 h   - hammer-on
 p   - pull-off
 b   - bend
 pb  - pre-bend
 r   - bend release (if no number after the r, then release immediately)
 /\  - slide into or out of (from/to "nowhere")
 s   - legato slide
 S   - shift slide
  - natural harmonic
[n]  - artificial harmonic
n(n) - tapped harmonic
 ~   - vibrato
 tr  - trill
 T   - tap
 TP  - trem. picking
 PM  - palm muting
\n/  - tremolo bar dip; n = amount to dip
 \n  - tremolo bar down
 n/  - tremolo bar up
/n\  - tremolo bar inverted dip
 =   - hold bend; also acts as connecting device for hammers/pulls
 <>  - volume swell (louder/softer)
 x   - on rhythm slash represents muted slash
 o   - on rhythm slash represents single note slash

Misc Legend
-----------
 |  - bar
||  - double bar
||o - repeat start
o|| - repeat end
*|  - double bar (ending)
 :  - bar (freetime)
 $  - Segno
 &  - Coda
Tempo markers -  = BPM(8/16=s8/s16), where s8 = swing 8ths, s16 = swing 16ths

 
 
Ventures - Apache :: indexed at Ultimate Guitar.
Apache tabs @ 911Tabs

About the artist behind Apache:

The Ventures are an American instrumental rock band formed in 1958, by Don Wilson and Bob Bogle, two Tacoma, Washington masonry workers. They have also contributed to the surf music genre, though they are not strictly a surf band. In 2008, they were inducted into the Rock and Roll Hall of Fame. [1]

Indexed at Wikipedia.

Show us your talent, perform Apache!

Here you can post a video or audio performance. Tell me more ...
Where can we find your performance? Tell me more ...
Your comment:
Please, log in to post your performance.