Artists by letter: A B C D E F G H I J K L M N O P Q R S T U V W X Y Z 0-9
 
Bukan Pahlawan Tab
Basic Chord: E C G D

E
|--|
|--|
|--|
|-8-|
|-8-|
|-7-|

C
|--|
|--|
|-5-|
|-5-|
|-3-|
|--|

G
|--|
|--|
|--|
|-5-|
|-5-|
|-3-|

D
|--|
|--|
|-7-|
|-7-|
|-5-|
|--|


Intro:
  E       C     G       D         
E|--------------|--------------|--------------|--------------|
B|--------------|--------------|--------------|--------------|
G|--------------|-5------------|--------------|-7------------|
D|-8------------|-5------------|-5------------|-7------------|  Play Twice
A|-8------------|-3------------|-5------------|-5------------|
e|-7------------|--------------|-3------------|--------------|

First Solo
   E            C            G              D          E          C          G        
E|---------------------------------------------------------------------------------|
B|------------8-8~--10-8-(8)/12~--12-10-12-10~~~------------------8~---------------|
G|-9--9--7-9-------------------------------------------9--9--7-9------7h-9---------|
D|--------------------------------------------------------------------------9~~~~--|
A|---------------------------------------------------------------------------------|
e|---------------------------------------------------------------------------------|

   E            C            G              D       E             C        G 
E|---------------------------------------------------------------------------------|
B|------------8-8~--10-8-(8)/12~--12-10-12-10~~~--------8---------8~--8h10-8~~~~---|
G|-9--9--7-9----------------------------------------7/9----9-7-9-------------------|
D|---------------------------------------------------------------------------------|
A|---------------------------------------------------------------------------------|
e|---------------------------------------------------------------------------------|

Socond Solo
   E            C            G              D          E          C          G        
E|---------------------------------------------------------------------------------|
B|------------8-8~--10-8-(8)/12~--12-10-12-10~~~------------------8~---------------|
G|-9--9--7-9-------------------------------------------9--9--7-9------7h-9---------|
D|--------------------------------------------------------------------------9~~~~--|
A|---------------------------------------------------------------------------------|
e|---------------------------------------------------------------------------------|

   E            C            G              D     E                  C            G 
E|-------------------------------------------------------15~-----------15~-15h17-15~~~~----|
B|------------8-8~--10-8-(8)/12~--12-10-12-10~~~--15/17------15--17-15---------------------|
G|-9--9--7-9-------------------------------------------------------------------------------|
D|-----------------------------------------------------------------------------------------|
A|-----------------------------------------------------------------------------------------|
e|-----------------------------------------------------------------------------------------|

Fill Effect
E|----------------------------||----------------------------|
B|----------------------------||----------------------------|
G|----7(7)/9~~--12~~--9~~~---||----7(7)/9~~--12~~---------|
D|-9--------------------------||-9-------------------9~~~---|
A|----------------------------||----------------------------|
e|----------------------------||----------------------------|
   Pertarungan abadi setan .........

h = hammer
/ = Slide
()= Ghost Sound
This is my first time I have tabing, I'm sorry if there is uncorrect tab
Use your feeling to work. Enjoy !

Anda bisa menaikkan dan menurunkan nada sesuka hati !!!

Sory banget kalo ada yang salah
Spesial thanks to:
Gamberrr cah smuven yk

Tablature player for this song:
 
 
Superman Is Dead - Bukan Pahlawan Tab :: indexed at Ultimate Guitar.
Bukan Pahlawan tabs @ 911Tabs

Quick tip, so you can enjoy Bukan Pahlawan Tab even more:

After the registration (which takes just 10 seconds, remember?) you will be able to use your profile - your very own piece of YourChords.com.

Show us your talent, perform Bukan Pahlawan Tab!

Here you can post a video or audio performance. Tell me more ...
Where can we find your performance? Tell me more ...
Your comment:
Please, log in to post your performance.