Artists by letter: A B C D E F G H I J K L M N O P Q R S T U V W X Y Z 0-9
 
Jeepney Tab
#----------------------------------PLEASE NOTE---------------------------------#
#This file is the author's own work and represents their interpretation of the #
#song. You may only use this file for private study, scholarship, or research. #
#------------------------------------------------------------------------------#

Artist: Spongecola
Song: Jeepney 
Album: Palabas
Track: 12
Year: 2004
Tabbed By: Janryck Lim (vj_janryck@yahoo.com)
Tuning: EADBGe (Standard)

*LATEST UPDATE* May 14, 2007
-Piano solo converted to guitar
-Added some comments


Intro/Verse 1:
D-G

e|--2---------3---------2---------3--|
B|--3---------3---------3---------3--|
G|--2---------0---------2---------0--|
D|--0---------0---------0---------0--|
A|--0---------2---------0---------2--|
E|------------3-------------------3--|

e|--2---------3---------2--2------3--|
B|--3---------3---------3----3----3--|
G|--2---------0---------2---------0--|
D|--0---------0---------0---------0--|
A|--0---------2---------0---------2--|
E|------------3-------------------3--|

Verse 2:
D-G

e|--22222222--33333333--22222222--33333333--|
B|--33333333--33333333--33333333--33333333--|
G|--22222222--00000000--22222222--00000000--| (Repeat 2x)
D|--00000000--00000000--00000000--00000000--|
A|--00000000--22222222--00000000--22222222--|
E|------------33333333------------33333333--|

Refrain:
G-A

e|--33333333--55555555--33333333--55555555--|
B|--33333333--55555555--33333333--55555555--|
G|--44444444--66666666--44444444--66666666--| (Repeat 2x)
D|--55555555--77777777--55555555--77777777--| 
A|--55555555--77777777--55555555--77777777--|
E|--33333333--55555555--33333333--55555555--|

Chorus:
D-A-Em-G

e|--22222222--00000000--00000000--33333333--|
B|--33333333--22222222--00000000--33333333--|
G|--22222222--22222222--00000000--00000000--| (Repeat 2x)
D|--00000000--22222222--22222222--00000000--|
A|--00000000--00000000--22222222--22222222--|
E|----------------------00000000--33333333--|

Pre-Verse/Instrumental:
D-G

e|--22222222--33333333--22222222--33333333--|
B|--33333333--33333333--33333333--33333333--|
G|--22222222--00000000--22222222--00000000--| (Fast strumming)
D|--00000000--00000000--00000000--00000000--|
A|--00000000--22222222--00000000--22222222--|
E|------------33333333------------33333333--|

Verse 3:
D-G
e|--22222222--33333333--22222222--33333333--|
B|--33333333--33333333--33333333--33333333--|
G|--22222222--00000000--22222222--00000000--| (Repeat 2x)
D|--00000000--00000000--00000000--00000000--|
A|--00000000--22222222--00000000--22222222--|
E|------------33333333------------33333333--|

Verse 4:
D-G

e|--22222222--33333333--22222222--33333333--|
B|--33333333--33333333--33333333--33333333--|
G|--22222222--00000000--22222222--00000000--| (Repeat 2x)
D|--00000000--00000000--00000000--00000000--|
A|--00000000--22222222--00000000--22222222--|
E|------------33333333------------33333333--|

Refrain:
G-A

Guitar 1
e|--33333333--55555555--33333333--55555555--|
B|--33333333--55555555--33333333--55555555--|
G|--44444444--66666666--44444444--66666666--| (Repeat 2x)
D|--55555555--77777777--55555555--77777777--|
A|--55555555--77777777--55555555--77777777--|
E|--33333333--55555555--33333333--55555555--|

Guitar 2
e|----------------------------|
B|----------------------------|
G|---------9-11-12-11-9----9--| (play after guitar 1 plays 
D|--9-9h11--------------11----| the refrain the 1st time)
A|----------------------------|
E|----------------------------|

e|--15b15b15b15b15b15b15b15b--|
B|----------------------------|
G|----------------------------| (play after guitar 1 plays 
D|----------------------------| the refrain the 2nd time)
A|----------------------------|
E|----------------------------|

Chorus:
D-A-Em-G

e|--22222222--00000000--00000000--33333333--|
B|--33333333--22222222--00000000--33333333--|
G|--22222222--22222222--00000000--00000000--| (Repeat 2x)
D|--00000000--22222222--22222222--00000000--|
A|--00000000--00000000--22222222--22222222--|
E|----------------------00000000--33333333--|

Bridge:

Guitar 1
e|----------------------------0--------|
B|------3---2h3----3------3-----3---3--|
G|----2---2------2------2---2-----2----| (Repeat 4x)
D|--0-----------------0----------------| (the other plays the piano)
A|-------------------------------------|
E|-------------------------------------|

Guitar 2 (converted from piano)
e|------------------------|
B|------7-8--7------------|
G|--7-9---------9-7--6-7--| 
D|------------------------| 
A|------------------------|
E|------------------------|

e|------------------------------|
B|------7-8--7--8-10-10---------|
G|--7-9------------------7-6-7--| 
D|------------------------------| 
A|------------------------------|
E|------------------------------|

e|----10--10-9--7----------7-9-10-9--|
B|----------------10--8-10-----------|
G|--7--------------------------------| 
D|-----------------------------------| 
A|-----------------------------------|
E|-----------------------------------|

e|----7-9-10-12-10-------------------|
B|--10-------------10-------8--7-----|
G|---------------------9-11-------7--| 
D|-----------------------------------| 
A|-----------------------------------|
E|-----------------------------------|


Refrain:
G-A

G|-----------------------------------|
D|-----------------------------------| (Bass part before the guitar strums)
A|-----------------------------------|   (Just in case you want it)
E|--3------3--5------5--3------3--5--|

e|--3---------0---------3---------00000000--|
B|--3---------2---------3---------22222222--|
G|--0---------2---------0---------22222222--|
D|--0---------2---------0---------22222222--|
A|--2---------0---------2---------00000000--|
E|--3-------------------3-------------------|

Chorus:
D-A-Em-G

e|--22222222--00000000--00000000--33333333--|
B|--33333333--22222222--00000000--33333333--|
G|--22222222--22222222--00000000--00000000--| (Repeat 4x)
D|--00000000--22222222--22222222--00000000--|
A|--00000000--00000000--22222222--22222222--|
E|----------------------00000000--33333333--|

Outro:

e|----------------------------0--------|
B|------3---2h3----3------3-----3---3--|
G|----2---2------2------2---2-----2----| (Repeat 3x)
D|--0-----------------0----------------|
A|-------------------------------------|
E|-------------------------------------|

e|----------------------------0----||
B|------3---2h3----3------3-----3--||
G|----2---2------2------2---2------||
D|--0-----------------0------------||
A|---------------------------------||
E|---------------------------------||








 








Tablature player for this song:
 
 
Sponge Cola - Jeepney Tab :: indexed at Ultimate Guitar.
Jeepney tabs @ 911Tabs

About the artist behind Jeepney Tab:

Sponge Cola is a Filipino rock band formed in 2002.

Indexed at Wikipedia.

Show us your talent, perform Jeepney Tab!

Here you can post a video or audio performance. Tell me more ...
Where can we find your performance? Tell me more ...
Your comment:
Please, log in to post your performance.