Artists by letter: A B C D E F G H I J K L M N O P Q R S T U V W X Y Z 0-9

 
Anticosmic Overload
Anticosmic Overload By Obscura

Turning : D,A,F,C,G,D

Left Guitar

---------------------------------------------|
---------------------------------------------|
--8--------------------------------11--------|
--7------------------------------------------|
--6---------------------------------9--------|
---------------------------------------------|

--------------------------------------------------------|
--------------------------------------------------------|
--9-----------------------------------9-----9-----9-----|
--------------------------------------------------------|
-----------------------------------7-----7-----7-----7--|
--------------------------------------------------------|

--------------------------|--------------------------|
--------------------------|--------------------------|
--8--------8--------8-----|--5-----5-----5-----5-----|
--------------------------|--------------------------|
-----6--6-----6--6-----6--|-----3-----3-----3-----3--|
--------------------------|--------------------------|

-------------------------------|--------------------------|
-------------------------------|--------------------------|
--4----------------------------|--9-----9-----9-----9-----|
-----------5--------4h--5h--7--|--------------------------|
-----2--2-----2--2-------------|-----7-----7-----7-----7--|
-------------------------------|--------------------------|

--------------------------|--------------------------|
--------------------------|--------------------------|
--8--------8--------8-----|--5-----5-----5-----5-----|
--------------------------|--------------------------|
-----6--6-----6--6-----6--|-----3-----3-----3-----3--|
--------------------------|--------------------------|

---------------------------|--------------------------------------|
---------------------------|--------------------------------------|
--4------------------------|--------------------------------------|
-----------5--------5p--4--|--------------------------------------|
-----2--2-----2--2---------|--7--7--7--7--7--7--7--7--7--7--7--7--|
---------------------------|--------------------------------------|

--------------------------------------|
--------------------------------------|
--------------------------------------|
--------------------------------------|
--9--9--9--9--9--9--9--9--9--9--9--9--|
--------------------------------------|

--------------------------------------------------|
--------------------------------------------------|
--------------------------------------------------|
--------------------------------------------------|
--10--10--10--10--10--10--10--10--10--10--10--10--|
--------------------------------------------------|
 
--------------------------------------------|-----------------------------|
--------------------------------------------|-----------------------------|
--------------------------------------------|--5--------------------------|
--------------------------------------------|-----------4--4--4--4--4--4--|
--10--10--10--10--10--10--9--9--9--7--7--7--|--6--------------------------|
--------------------------------------------|-----------------------------|

-----------------------------|-----------------------------|
-----------------------------|-----------------------------|
--4--------------------------|--2--------------------------|
-----------------------------|--2--------------------------|
--2--------3--3--3--3--3--3--|--0--------0--0--0--0--0--0--|
-----------------------------|-----------------------------|
 
--------------------------|--------------------------|
--------------------------|--------------------------|
--------------------------|--9-----9-----9-----9-----|
--5--L--L--1----4----7----|--------------------------|
--5--L--L--3----6----9----|-----7-----7-----7-----7--|
--3--L--L-----------------|--------------------------|
 
--------------------------|--------------------------|
--------------------------|--------------------------|
--8--------8--------8-----|--5-----5-----5-----5-----|
--------------------------|--------------------------|
-----6--6-----6--6-----6--|-----3-----3-----3-----3--|
--------------------------|--------------------------|

-------------------------------|--------------------------|
-------------------------------|--------------------------|
--4----------------------------|--9-----9-----9-----9-----|
-----------5--------4h--5h--7--|--------------------------|
-----2--2-----2--2-------------|-----7-----7-----7-----7--|
-------------------------------|--------------------------|

--------------------------|--------------------------|
--------------------------|--------------------------|
--8--------8--------8-----|--5-----5-----5-----5-----|
--------------------------|--------------------------|
-----6--6-----6--6-----6--|-----3-----3-----3-----3--|
--------------------------|--------------------------|

---------------------------|--------------------------------------|
---------------------------|--------------------------------------|
--4------------------------|--------------------------------------|
-----------5--------5p--4--|--------------------------------------|
-----2--2-----2--2---------|--7--7--7--7--7--7--7--7--7--7--7--7--|
---------------------------|--------------------------------------|
 
--------------------------------------|
--------------------------------------|
--------------------------------------|
--------------------------------------|
--9--9--9--9--9--9--9--9--9--9--9--9--|
--------------------------------------|
 
--------------------------------------------------|
--------------------------------------------------|
--------------------------------------------------|
--------------------------------------------------|
--10--10--10--10--10--10--10--10--10--10--10--10--|
--------------------------------------------------|
 
--------------------------------------------|-----------------------------|
--------------------------------------------|-----------------------------|
--------------------------------------------|--5--------------------------|
--------------------------------------------|-----------4--4--4--4--4--4--|
--10--10--10--10--10--10--9--9--9--7--7--7--|--6--------------------------|
--------------------------------------------|-----------------------------|

-----------------------------|-----------------------------|
-----------------------------|-----------------------------|
--4--------------------------|--2--------------------------|
-----------------------------|--2--------------------------|
--2--------3--3--3--3--3--3--|--0--------0--0--0--0--0--0--|
-----------------------------|-----------------------------|
 
--------------------------|---------------------|---------------------|
--------------------------|---------------------|---------------------|
--------------------------|--9------------------|--9------------------|
--5--L--L--1----4----7----|---------------------|---------------------|
--5--L--L--3----6----9----|-----7--7--10--9--7--|-----7--7--10--9--7--|
--3--L--L-----------------|---------------------|---------------------|

--------------------|--------------------|---------------------|
--------------------|--------------------|---------------------|
--8-----------------|--8-----------------|--9------------------|
--------------------|--------------------|---------------------|
-----6--6--9--8--6--|-----6--6--6--8--9--|-----7--7--10--9--7--|
--------------------|--------------------|---------------------|

---------------------|--------------------|--------------------|
---------------------|--------------------|--------------------|
--9------------------|--8-----------------|--8--------8--------|
---------------------|--------------------|-----7--------7-----|
-----7--7--10--9--7--|-----6--6--9--8--6--|--------6--------6--|
---------------------|--------------------|--------------------|
 
--------------------|--------------------|--------------------|
--------------------|--------------------|--------------------|
--5-----------------|--5-----------------|--4-----------------|
--------------------|--------------------|--------------------|
-----3--3--6--5--3--|-----3--3--6--5--3--|-----2--2--5--4--2--|
--------------------|--------------------|--------------------|

--------------------|--------------------|--------------------|
--------------------|--------------------|--------------------|
--4-----------------|--5-----------------|--5-----------------|
--------------------|--------------------|--------------------|
-----2--2--2--4--5--|-----3--3--6--5--3--|-----3--3--6--5--3--|
--------------------|--------------------|--------------------|
 
-----------------------------------|--------------------------|
-----------------------------------|--------------------------|
--4--------------------------------|--16----------------------|
-----------------------------------|--------------------------|
-----------------------14--16--17--|------14--14--17--16--14--|
-----------------------------------|--------------------------|

--------------------------|--------------------------|
--------------------------|--------------------------|
--16----------------------|--15----------------------|
--------------------------|--------------------------|
------14--14--17--16--14--|------13--13--16--15--13--|
--------------------------|--------------------------|
 
--------------------------|--------------------------|
--------------------------|--------------------------|
--15----------------------|--16----------------------|
--------------------------|--------------------------|
------13--13--13--15--16--|------14--14--17--16--14--|
--------------------------|--------------------------|
  
--------------------------|--------------------------|
--------------------------|--------------------------|
--16----------------------|--15----------------------|
--------------------------|--------------------------|
------14--14--17--16--14--|------13--13--16--15--13--|
--------------------------|--------------------------|

--------------------------|--------------------|--------------------|
--------------------------|--------------------|--------------------|
--15----------15----------|--8-----------------|--8-----------------|
------14----------14------|--------------------|--------------------|
----------13----------13--|-----6--6--9--8--6--|-----6--6--9--8--6--|
--------------------------|--------------------|--------------------|
 
--------------------|--------------------|--------------------|
--------------------|--------------------|--------------------|
--7-----------------|--7-----------------|--8-----------------|
--------------------|--------------------|--------------------|
-----5--5--8--7--5--|-----5--5--5--7--8--|-----6--6--9--8--6--|
--------------------|--------------------|--------------------|

--------------------|
--------------------|
--8-----------------|
--------------------|
-----6--6--9--8--6--|
--------------------|

--------------------------|--------------------------|
--------------------------|--------------------------|
--------------------------|--------------------------|
--5--L--L--1----4----7----|-----5--------------2--1--|
--5--L--L--3----6----9----|-----------2--0--2--------|
--3--L--L-----------------|--3-----3-----------------|

--------------------------|--------------------------------------------------|
--------------------------|--------------------------------------------------|
--------------------------|--------------------------------------------------|
-----1-----2-----1--4--5--|--------------------------------------------------|
--2-----3-----3-----------|--------------2--2--------------------2--------6--|
--------------------------|--0--3--3--0--------3--0--L--2--3--5-----5--2-----|

--------------------------------------------------|
--------------------------------------------------|
--------------------------------------------2--4--|
-----------------------------4--1-----5--2--------|
-----2--------3-----2--L-----------2--------------|
--2-----2--0-----2--------2-----------------------|

--------------------------------------------------|
--------------------------------------------------|
--------------------------------------------------|
--------------------------------------------------|
--------------2--2--------------------2--------6--|
--0--3--3--0--------3--0--L--2--3--5-----5--2-----|

--------------------------------------------------|
--------------------------------------------------|
--------------------------------------------2--4--|
-----------------------------4--1-----5--2--------|
-----2--------3-----2--L-----------2--------------|
--2-----2--0-----2--------2-----------------------|

--------------------------------------------------|
--------------------------------------------------|
--------------------------------------------------|
--------------------------------------------------|
--------------2--2--------------------2--------6--|
--0--3--3--0--------3--0--L--2--3--5-----5--2-----|

--------------------------------------------------|
--------------------------------------------------|
--------------------------------------------2--4--|
-----------------------------4--1-----5--2--------|
-----2--------3-----2--L-----------2--------------|
--2-----2--0-----2--------2-----------------------|

--------------------------------------------------|
--------------------------------------------------|
--------------------------------------------------|
--------------------------------------------------|
--------------2--2--------------------2--------6--|
--0--3--3--0--------3--0--L--2--3--5-----5--2-----|
  
--------------------------------------------------|
--------------------------------------------------|
--------------------------------------------2--4--|
-----------------------------4--1-----5--2--------|
-----2--------3-----2--L-----------2--------------|
--2-----2--0-----2--------2-----------------------|

-----------------------------------|-----------------------------------|
-----------------------------------|-----------------------------------|
-----------------------------------|-----------------------------------|
-----------------------------------|-----------------------------------|
-----------------------------------|--2--2--2--1--2--3--3--3-----------|
--0--0--0--2--2--2--3--3--3--2--3--|--------------------------2--2--2--|

--------------------------------------|--------------------------------------|
--------------------------------------|--------------------------------------|
--------------------------------------|--------------------------------------|
--------------------------------------|--------------------------------------|
--------------------------------------|--2--2--2--0--0--0--2--2--2-----------|
--0--0--0--2--2--2--3--3--3--0--0--0--|-----------------------------2--2--2--|

-----------------------------------|-----------------------------------|
-----------------------------------|-----------------------------------|
-----------------------------------|-----------------------------------|
-----------------------------------|-----------------------------------|
-----------------------------------|-----------------------------------|
--0--0--0--2--2--2--3--3--3--2--3--|--3--3--3--2--3--5--5--5--5--5--5--|

--------------------------------------|--------------------------------------|
--------------------------------------|--------------------------------------|
--------------------------------------|--------------------------------------|
-----------------------------5--5--5--|--4--4--4--5--5--5--7--7--7--9--9--9--|
--------------------------------------|--------------------------------------|
--3--3--3--5--5--5--7--7--7-----------|--------------------------------------|

-----------------------------------|-----------------------------------|
-----------------------------------|-----------------------------------|
-----------------------------------|-----------------------------------|
-----------------------------------|-----------------------------------|
-----------------------------------|--2--2--2--1--2--3--3--3-----------|
--0--0--0--2--2--2--3--3--3--2--3--|--------------------------2--2--2--|

--------------------------------------|--------------------------------------|
--------------------------------------|--------------------------------------|
--------------------------------------|--------------------------------------|
--------------------------------------|--------------------------------------|
--------------------------------------|--2--2--2--0--0--0--2--2--2-----------|
--0--0--0--2--2--2--3--3--3--0--0--0--|-----------------------------2--2--2--|

-----------------------------------|-----------------------------------|
-----------------------------------|-----------------------------------|
-----------------------------------|-----------------------------------|
-----------------------------------|-----------------------------------|
-----------------------------------|-----------------------------------|
--0--0--0--2--2--2--3--3--3--2--3--|--3--3--3--2--3--5--5--5--5--5--5--|

--------------------------------------|--------------------------------------|
--------------------------------------|--------------------------------------|
--------------------------------------|--------------------------------------|
-----------------------------5--5--5--|--4--4--4--5--5--5--7--7--7--9--9--9--|
--------------------------------------|--------------------------------------|
--3--3--3--5--5--5--7--7--7-----------|--------------------------------------|

-------------------------------------------|
-------------------------------------------|
-----------------4----2--------------------|
--5----2----5--------------4----1----5~----|
-------------------------------------------|
-------------------------------------------|

-------------------------------------------|
-------------------------------------------|
-----------------4----5----2---------------|
--L----2----5-------------------1----5~----|
-------------------------------------------|
-------------------------------------------|
    
-------------------------------------------|
-------------------------------------------|
-----------------4----2--------------------|
--L----2----5--------------4----1----2~----|
-------------------------------------------|
-------------------------------------------|
  
---------------------------------------------|
---------------------------------------------|
---------------------------------------4--2--|
--L--------------2----1-------------1--------|
-------0----2--------------0--2--3-----------|
---------------------------------------------|
  
-------------------------------------------|
-------------------------------------------|
-----------------4----2--------------------|
--5----2----5--------------4----1----5~----|
-------------------------------------------|
-------------------------------------------|
  
-------------------------------------------|
-------------------------------------------|
-----------------4----5----2---------------|
--L----2----5-------------------1----5~----|
-------------------------------------------|
-------------------------------------------|
   
-------------------------------------------|
-------------------------------------------|
-----------------4----2--------------------|
--L----2----5--------------4----1----2~----|
-------------------------------------------|
-------------------------------------------|
 
---------------------------------------------|
---------------------------------------------|
---------------------------------------4--2--|
--L--------------2----1-------------1--------|
-------0----2--------------0--2--3-----------|
---------------------------------------------|

-------------------------------------------|
-------------------------------------------|
-----------------4----2--------------------|
--5----2----5--------------4----1----5~----|
-------------------------------------------|
-------------------------------------------|
 
-------------------------------------------|
-------------------------------------------|
-----------------4----5----2---------------|
--L----2----5-------------------4----5~----|
-------------------------------------------|
-------------------------------------------|
  
-------------------------------------------|
-------------------------------------------|
-----------------4----2--------------------|
--L----2----5--------------4---------5~----|
--------------------------------2----------|
-------------------------------------------|
  
---------------------------------------------|
---------------------------------------------|
---------------------------------------4--2--|
--L----4----5----5----4-------------1--------|
---------------------------0--2--3-----------|
---------------------------------------------|
  
-------------------------------------------|
-------------------------------------------|
-----------------4----2--------------------|
--5----2----5--------------4----1----5~----|
-------------------------------------------|
-------------------------------------------|
 
-------------------------------------------|
-------------------------------------------|
-----------------4----5----2---------------|
--L----2----5-------------------4----5~----|
-------------------------------------------|
-------------------------------------------|
 
-------------------------------------------|
-------------------------------------------|
-----------------4----2--------------------|
--L----2----5--------------4---------5~----|
--------------------------------2----------|
-------------------------------------------|

---------------------------------------------|
---------------------------------------------|
---------------------------------------4--2--|
--L----4----5----5----4-------------1--------|
---------------------------0--2--3-----------|
---------------------------------------------|
   
--------------------------------------0---------|
------------------------------------------------|
---------------------------------0---------3----|
--2----------3-------5------6----L----L----5----|
--2----------3-------5--------------------------|
--0----0--0--4-------6------4----L----L---------|
  
-------0----L----L-------------------4-------------|
------------0----L--------------6----L------9------|
-----------------3---------7----L----L-------------|
--2-------------------5----L----L----L------6------|
--2------------------------------------------------|
--0------------------------------------------------|

--------------------------------------0---------|
------------------------------------------------|
---------------------------------0---------3----|
--2----------3-------5------6----L----L----5----|
--2----------3-------5--------------------------|
--0----0--0--4-------6------4----L----L---------|
   
-------0----L----L-------------------4-------------|
------------0----L--------------6----L------9------|
-----------------3---------7----L----L-------------|
--2-------------------5----L----L----L------6------|
--2------------------------------------------------|
--0------------------------------------------------|
 
--------------------------------------0---------|
------------------------------------------------|
---------------------------------0---------3----|
--2----------3-------5------6----L----L----5----|
--2----------3-------5--------------------------|
--0----0--0--4-------6------4----L----L---------|
   
-------0----L----L-------------------4-------------|
------------0----L--------------6----L------9------|
-----------------3---------7----L----L-------------|
--2-------------------5----L----L----L------6------|
--2------------------------------------------------|
--0------------------------------------------------|
  
--------------------------------------0---------|
------------------------------------------------|
---------------------------------0---------3----|
--2----------3-------5------6----L----L----5----|
--2----------3-------5--------------------------|
--0----0--0--4-------6------4----L----L---------|
    
-------0----L----L-------------------4-------------|
------------0----L--------------6----L------9------|
-----------------3---------7----L----L-------------|
--2-------------------5----L----L----L------6------|
--2------------------------------------------------|
--0------------------------------------------------|



-----------------------------------|-------------------------------|
-----------------------------------|-------------------------------|
-----------------------------------|-------------------------------|
-----------------------------------|-------------------------------|
--10-------------------------------|--9-------------10-------------|
--------7--7--7--7--7--7--7--7--7--|-------7--7--7--------7--7--7--|

----------------------------------|--------------------------------------|
----------------------------------|--------------------------------------|
----------------------------------|--------------------------------------|
----------------------------------|--------------------------------------|
--9-------------------------------|--8--8--8--9--9--9--8--8--8-----------|
-------6--6--6--6--6--6--6--6--6--|-----------------------------9--9--9--|

----------------------------------|------------------------------|
----------------------------------|------------------------------|
----------------------------------|------------------------------|
----------------------------------|------------------------------|
--6-------------------------------|--5-------------6-------------|
-------3--3--3--3--3--3--3--3--3--|-------3--3--3-------3--3--3--|

----------------------------------|--------------------------------------|
----------------------------------|--------------------------------------|
----------------------------------|--------------------------------------|
----------------------------------|--------------------------------------|
--5-------------------------------|--------------------------------------|
-------2--2--2--2--2--2--2--2--2--|--0--0--0--2--2--2--3--3--3--5--5--5--|

-----------------------------------|-------------------------------|
-----------------------------------|-------------------------------|
-----------------------------------|-------------------------------|
--10-------------------------------|--9-------------10-------------|
--------7--7--7--7--7--7--7--7--7--|-------7--7--7--------7--7--7--|
-----------------------------------|-------------------------------|

----------------------------------|--------------------------------------|
----------------------------------|--------------------------------------|
----------------------------------|--------------------------------------|
--9-------------------------------|--8--8--8--9--9--9--8--8--8-----------|
-------6--6--6--6--6--6--6--6--6--|-----------------------------9--9--9--|
----------------------------------|--------------------------------------|

----------------------------------|------------------------------|
----------------------------------|------------------------------|
----------------------------------|------------------------------|
--6-------------------------------|--5-------------6-------------|
-------3--3--3--3--3--3--3--3--3--|-------3--3--3-------3--3--3--|
----------------------------------|------------------------------|

----------------------------------|--------------------------------------|
----------------------------------|--------------------------------------|
----------------------------------|--------------------------------------|
--5-------------------------------|--------------------------------------|
-------2--2--2--2--2--2--2--2--2--|--0--0--0--2--2--2--3--3--3--5--5--5--|
----------------------------------|--------------------------------------|

End
----------------------|--------------------||
----------------------|--------------------||
----------------------|--------------------||
----------------------|--------------------||
--2----2----2----2----|--2-----------------||
--0----0----0----0----|--0-----------------||


 
 
Obscura - Anticosmic Overload :: indexed at Ultimate Guitar.
Anticosmic Overload tabs @ 911Tabs
People who played Obscura - Anticosmic Overload also played these songs by Obscura:
Incarnated Tab, Anticosmic Overload Tab, Incarnated

Quick tip, so you can enjoy Anticosmic Overload even more:

If you spend just 10 seconds to register, you will be able to comment on all the chords and tabs and rate them. You will as well be able to comment on videos of your fellow guitarists and give them ratings from 1 to 5 ... And - of course - you can share your own videos with them and see what they think of you. :)
Click here to join us!

Show us your talent, perform Anticosmic Overload!

Here you can post a video or audio performance. Tell me more ...
Where can we find your performance? Tell me more ...
Your comment:
Please, log in to post your performance.