Artists by letter: A B C D E F G H I J K L M N O P Q R S T U V W X Y Z 0-9

 
Shoot The Runner
Well okay this is my interpretation. This is my first tab n'all so I dunno if it'll be 
or not .I swear that Mehler's guitar is in drop D but don't hold me to that. But anyway, 
is in standard tuning however and
this is mainly what the rhythm guitar does n'all

Intro:
I'd say with some distortion on but I dunno play around with effects

e|----------------|
B|----------------|
G|----------------|
D|7777777777777777
A|7777777777777777
E|5555555555555555

Then:

e|--------------------------------------|
B|--------------------------------------|
G|--------------------7/9-999-7/9-999---|
D|5/7-777-x-5/7-777-x-7/9-999-7/9-999---|
A|5/7-777-x-5/7-777-x-5/7-777-5/7-777---| x 2
E|3/5-555-x-3/5-555-x-5/7-777-5/7-777---|

After doing this for the intro bit. Carry that on through the first verse
until Serge sings and during him singing you play this. In the background I do hear the 
being played but thats the bass but you could play both of these with 2 guitarist to get 
layer on it.

e|-----------------------------|
B|-----------------------------|
G|1414141414141414-999999999---|
D|1414141414141414-999999999---|  x 2
A|1212121212121212-777777777---|
E|-----------------------------|

Back to this: For second verse.

e|--------------------------------------|
B|--------------------------------------|
G|--------------------7/9-999-7/9-999---|
D|5/7-777-x-5/7-777-x-7/9-999-7/9-999---|
A|5/7-777-x-5/7-777-x-5/7-777-5/7-777---| x 2
E|3/5-555-x-3/5-555-x-5/7-777-5/7-777---|

There's solo's but the other tabs have got them  and I give them credit for doing the 
but I'll add them in for ease.

e|-------------------------------------------------|
B|-------------------------------------------------|
G|-------------------------------------------------|
D|-----10--12-10------------10---12-10-------------|
A|10-12--12-----10-12-10-12----12-----10-12-10-7-3-|
E|-------------------------------------------------|

Then there's another solo done by Serge which is:

e|---------8---------------------------|
B|10b-8h10---10-8----------8---8-10----|
G|---------------9b/7b-7h9---9---------|
D|-------------------------------------|
A|-------------------------------------|
E|-------------------------------------|

Back to this progression for the
"Bang, Bang away we're not scared..."

e|-----------------------------|
B|-----------------------------|
G|1414141414141414-999999999---|
D|1414141414141414-999999999---|  x 2
A|1212121212121212-777777777---|
E|-----------------------------|

Then that:

e|--------------------------------------|
B|--------------------------------------|
G|--------------------7/9-999-7/9-999---|
D|5/7-777-x-5/7-777-x-7/9-999-7/9-999---|
A|5/7-777-x-5/7-777-x-5/7-777-5/7-777---| x 2
E|3/5-555-x-3/5-555-x-5/7-777-5/7-777---|

Also there's a hell lot of solo's in between which I can't tab out but the improvise 
fret I think. Not postive though.

Then finally back to this for Serge's final bit:

e|-----------------------------|
B|-----------------------------|
G|1414141414141414-999999999---|
D|1414141414141414-999999999---|  x 2
A|1212121212121212-777777777---|
E|-----------------------------|
 
 
Kasabian - Shoot The Runner :: indexed at Ultimate Guitar.
Shoot The Runner tabs @ 911Tabs

About the artist behind Shoot The Runner:

Kasabian are an English rock band from Leicester, formed by Tom Meighan (vocals), Sergio Pizzorno (guitar and vocals), Chris Edwards (bass), Chris Karloff (Keyboards and Guitar) and Ash Hannis (drums) who left shortly before the release of the first album. During the recording of the band's second album, the drummer Ian Matthews became a permanent member. Shortly after this, Chris Karloff was asked to leave due to "creative differences".

The band members are from the Leicestershire villages of Blaby and Countesthorpe. They met whilst attending Leysland High School and Countesthorpe Community College.

The band took their name from Linda Kasabian, the young pregnant girl who drove the car in which Charles Manson escaped after the murder in the house of Sharon Tate, the wife of Roman Polanski. Also, Kasabian means butcher in Armenian

The band has been compared with the likes of Primal Scream, with whom they share an electronica-indie rock fusion, and The Stone Roses and Oasis, with whom they share confidence, swagger and rough vocal style. [1]

Their music is often compared with "Madchester" group the Stone Roses in music magazines such as NME, though the band have disputed their labelling as a "Madchester" band as "lazy journalism"[2].

Indexed at Wikipedia.

Show us your talent, perform Shoot The Runner!

Here you can post a video or audio performance. Tell me more ...
Where can we find your performance? Tell me more ...
Your comment:
Please, log in to post your performance.