Artists by letter: A B C D E F G H I J K L M N O P Q R S T U V W X Y Z 0-9

 
No Puedo
Transcripción Por: José Pablo Sandí Martínez
josepablo28@

Intro x 4

Dm Dm Dm Dm
Am Am Am Am
C C C C
G G G G


Dm             Am          C             G
Me estoy acomodando y ya siento que no puedo.
Dm             Am              C         G
Me voy acostumbrando y me empiezo a enredar.
Dm               Am            C            G
Me estoy desesperando y me envuelvo en su cuerpo.
Dm         Am           C      G
Estoy alucinando y no puedo parar.


Coro: *******************************************
     Bb     F      C           C
No puedo negar la forma de sentirme humano.
     Bb     F      C             C
No puedo negar las ganas que me dan tu sabor.
     Bb     F      C                   C
No puedo olvidar la voces que me han condenado.
     Bb    F          C
No puedo alejarme ya más.

*************************************************

Bridge: -----------------------------------------

Am           Ab         F
No puedo olvidarte no puedo.
Am           Ab       F
No puedo alejarme ya más.
Am           Ab         F
No puedo olvidarte no puedo.
Am           Ab       F
No puedo alejarme ya más.

-------------------------------------------------

Intro x 2

Dm               Am            C            G
Me estoy desesperando y me envuelvo en su cuerpo.
Dm         Am           C      G
Estoy alucinando y no puedo parar.

Coro

Bridge

Solo:

E------5-----10-8-10--5-----------------------------------------------5-5--------
B--6-8--6---------------6-6/8-6---6---------6----6-------6----------------8-6----
G-7-------7---------------------7---7-5-5h7---7------5-7---7--7---5-7---------7--
D--------------------------------------------------7------------7----------------
A--------------------------------------------------------------------------------
E--------------------------------------------------------------------------------

E-10-10-10-10--8-8-8-8--10-8-----------------13--13--13-----------------5----8--5
B----------------------------10/8---6-6---15---15---15--15/13--10---6-8---8------
G---------------------------------7--------------------------------7-------------
D--------------------------------------------------------------------------------
A--------------------------------------------------------------------------------
E--------------------------------------------------------------------------------

Coro

Am           Ab       F
No puedo alejarme ya más.
 
 
Kadeho - No Puedo :: indexed at Ultimate Guitar.
No Puedo tabs @ 911Tabs
People who played Kadeho - No Puedo also played these songs by Kadeho:
El Callejon Bass Tab, Vivo Volando Chords, Sola Chords, Sola Chords, Trejo Chords, El Animal Chords

Quick tip, so you can enjoy No Puedo even more:

You might want to transpose the song if it is too high or too low for you to sing. Just click the desired option while playing a song and all the chords will automatically be transponded into a new key.

Show us your talent, perform No Puedo!

Here you can post a video or audio performance. Tell me more ...
Where can we find your performance? Tell me more ...
Your comment:
Please, log in to post your performance.