Artists by letter: A B C D E F G H I J K L M N O P Q R S T U V W X Y Z 0-9

 
Spare Change
I noticed that no one had posted a transcription of Ingrid's new song, which I am a huge 
fan of.
Note that this song is originally a solo piano with some string accompaniment, but I 
think I found a suitable way to fingerpick it on a standard acoustic guitar.
It takes some quick movement, but isn't too difficult.
This is my first official tab, and though I think it's correct, the second part of the 
chorus is a bit of an approximation. Thanks!

Intro:
e-------8---8----------7---7---------7---7---------5---5---|
B----------------------------------------------------------|
G-----9---9---9------7---7---7-----7---7---7-----5---5---5-|
D--7--------------5---------------------------3------------|
A-------------------------------7--------------------------|
E----------------------------------------------------------|

--------5---5---------3---3-----------------------------|
------------------------------------6---6---6---6---6---|
------5---5---5-----4---4---4-----5---5---5---5---5---5-|
---7-------------5-------------3------------------------|
--------------------------------------------------------|
--------------------------------------------------------|

-------8---8----------7---7---------7---7---------5---5--|
---------------------------------------------------------|
-----9---9---9------7---7---7-----7---7---7-----5---5---5|
--7--------------5---------------------------3-----------|
-------------------------------7-------------------------|
---------------------------------------------------------|

---------5---5---------3---3---------5---5---5---5---5---|
---------------------------------------------------------|
-------5---5---5-----4---4---4-----5---5---5---5---5---5-|
----7-------------5-------------7------------------------|
---------------------------------------------------------|
---------------------------------------------------------|

Verse:

-------8---8----------7---7---------7---7---------5---5--|
---------------------------------------------------------|
-----9---9---9------7---7---7-----7---7---7-----5---5---5|
--7--------------5---------------------------3-----------|
-------------------------------7-------------------------|
---------------------------------------------------------|

---------5---5---------3---3---------5---5---5---5---5---|
---------------------------------------------------------|
-------5---5---5-----4---4---4-----5---5---5---5---5---5-|
----7-------------5-------------3------------------------|
---------------------------------------------------------|
---------------------------------------------------------|
(x2 for each verse, and once in between the two verses)

Chorus: (You can't break me...)
-------8---8----------7---7---------7---7---------5---5----|
-----------------------------------------------------------|
-----9---9---9------7---7---7-----7---7---7-----5---5---5--|
--7--------------5---------------------------3-------------|
-------------------------------7---------------------------|
-----------------------------------------------------------|

-------5---5---------3---3-----------------------------|
-----------------------------------6---6---6---6---6---|
-----5---5---5-----4---4---4-----5---5---5---5---5---5-|
--7-------------5-------------3------------------------|
-------------------------------------------------------|
-------------------------------------------------------|

---------------------------------------------------------------|
-------6---6----------8---8----------10--10---------8---8------|
---------------------------------------------------------------| (x2)   (x6 second time)
-----7---7---7------9---9---9------10--10--10-----9---9---9----|
--5--------------7--------------8--------------7---------------|
---------------------------------------------------------------|

then (on first time only)                                                               
.              (slowing down)
---------------------------------------------------------------------8---8|
-------6---6----------8---8----------10--10---------12--12----------------|
-------------------------------------------------------------------9---9--|
-----7---7---7------9---9---9------10--10--10-----12--12--12----7---------|
--5--------------7--------------8--------------10-------------------------|
--------------------------------------------------------------------------|

---------8---8------------8-----8-------------------8-----------8---------|
--------------------------------------------------------------------------|
-9-----9---9---9-------9-----9-----9-----------9----------9------------9--|
----7---------------7---------------------7-------------------------------|
--------------------------------------------------------------------------|
--------------------------------------------------------------------------|

Outro:                                                                  (slower)
-------8---8----------8---8---------8---8---------8---8------------8---8----------8---8--------8-|
-------------------------------------------------------------------------------------------------|
-----9---9---9------9---9---9-----9---9---9-----9---9---9--------9---9---9------9---9---9-----9--|
--7--------------5---------------------------5----------------7--------------5---------------7---|
-------------------------------8-----------------------------------------------------------------|
-------------------------------------------------------------------------------------------------|
 
 
Ingrid Michaelson - Spare Change :: indexed at Ultimate Guitar.
Spare Change tabs @ 911Tabs

About the artist behind Spare Change:

Ingrid Michaelson (born 1979)[1] is a New York-based indie-pop singer/songwriter.

Her music has been featured on numerous television shows as well as the in Old Navy Fall 2007 Fair Isle Sweater advertising campaign.[2] Most notably, Michaelson's songs have been selected as soundtracks for emotional scenes on Grey's Anatomy[3] and One Tree Hill.[4]

Indexed at Wikipedia.

Show us your talent, perform Spare Change!

Here you can post a video or audio performance. Tell me more ...
Where can we find your performance? Tell me more ...
Your comment:
Please, log in to post your performance.