Artists by letter: A B C D E F G H I J K L M N O P Q R S T U V W X Y Z 0-9

 
Lady In Spain
Ingrid Michaelson
Lady In Spain

This is another fun I.M. song that is fairly easy for you finger pickers out there.  
It's very accurate.  Just be sure to keep it in 3/4.  Enjoy!

Chords used (C, Em7, Em, Am, F, E, G)

Capo 6

Intro
E|------------------------------------------------------------|
B|---------1----1---------1---------------1----1---------1----|
G|---------0----0---------0---------------0----0---------0----|
D|---------0----0---------0---------------0----0---------0----|
A|----3--------------3---------------3--------------3---------|
E|------------------------------------------------------------|


Verse 1
    I   am   a   lady   in   Spain                   I'll  sing a  haunting
E|-------------------------------3---3---------------------------------------|
B|-------1---1-------1---0-------0---0-------0---0-------1---1-------1---1---|
G|-------0---0-------0---0-------0---0-------0---0-------2---2-------2---2---|
D|-------0---0-------0---0-------------------2---2-------2---2-------2---2---|
A|---3-----------3-----------2-----------2-----------0-----------0-----------|
E|---------------------------------------------------------------------------|

    refrain.                 I  am  a   la-dy  from  Mars     
E|-------1---1-------1---1-------------------------------3---3---------------|
B|-------1---1-------1---1-------1---1-------1---0-------0---0-------0---0---|
G|-------2---2-------2---2-------0---0-------0---0-------0---0-------0---0---|
D|---3-----------3---------------0---0-------0---0-------------------2---2---|
A|---------------------------3-----------3-----------2-----------2-----------|
E|---------------------------------------------------------------------------|

 and I  can     un-screw the stars.
E|-------------------------------1---1--------1---1---------|
B|-------1---1-------1---1-------1---1--------1---1---------|
G|-------2---2-------2---2-------2---2--------2---2---------|
D|-------2---2-------2---2---3------------3-----------------|
A|---0-----------0------------------------------------------|
E|----------------------------------------------------------|


Chorus
     I         can          be                             anything   that I see,
E|---------------------------------------------------------1---1-------1---1-------3---3-------3---3---|
B|------0---0-------0-----------1---1----------------------1---1-------1---1-------0---0-------0---0---|
G|------0---0-------0-----------2---2----------------------2---2-------2---2-------0---0-------0---0---|
D|------2---2-------2-----------2---2------------------3-----------3-----------------------------------|
A|---2------------------2---0-----------0---2---3------------------------------------------2-----------|
E|--------------0--------------------------------------------------------------3-----------------------|


     I         can         be                            anything     that I,   anything      that I
E|---------------------------------------------------------1---1-------1---1-------3---3-------3---3---|
B|------0---0-------0-----------1---1-------1---1----------1---1-------1---1-------0---0-------0---0---|
G|------0---0-------0-----------2---2-------2---2----------2---2-------2---2-------0---0-------0---0---|
D|------2---2-------2-----------2---2-------2---2------3-----------3-----------------------------------|
A|---2------------------2---0-----------0--------------------------------------------------2-----------|
E|--------------0--------------------------------------------------------------3-----------------------|

    see
E|-------------------------------1---1-------3---3---|
B|-------1---1-------0---0-------1---1-------0---0---|
G|-------0---0-------1---1-------2---2-------0---0---|
D|-------2---2-------2---2---3-----------------------|
A|---3-----------------------------------------------|
E|---------------0-----------------------3-----------|


Verse 2 (just continue repeating the same picking patterns throughout remainder of song)
C                   Em7-Em   Am                   F
I am in love with a boy,     manufactured to destroy
   C                  Em7-Em    Am                      F
So I shall unravel my love,    like an old red woolen glove

Chorus 
Em    Am  F                 G  Em    Am  F                G
I can do   anything I want to, I can do   anything I want,  anything my heart
C     E  F  G    C    E  F  G    C    E  F  G
Tells me to do, tells me to do, tells me to do
       C             E            F       G
Da-da-doo  da-da-da-doo  da-da-da-da-doo

Mouth Trumpet Solo (same as Chorus)

Em / Am  / F  / G

Em / Am / F  / G

Final Chorus
Em    Am  F                 G
I can be   anything that I see
Em    Am  F                G
I can do   anything I want to,
Em    Am  F                          G
I can do-oo-oo-oo   anything I want to
Em        Am  F                 G                  C  E  F  G  *C(hold)
And I can be   anything that I,   anything that I say

End
 
 
Ingrid Michaelson - Lady In Spain :: indexed at Ultimate Guitar.
Lady In Spain tabs @ 911Tabs

About the artist behind Lady In Spain:

Ingrid Michaelson (born 1979)[1] is a New York-based indie-pop singer/songwriter.

Her music has been featured on numerous television shows as well as the in Old Navy Fall 2007 Fair Isle Sweater advertising campaign.[2] Most notably, Michaelson's songs have been selected as soundtracks for emotional scenes on Grey's Anatomy[3] and One Tree Hill.[4]

Indexed at Wikipedia.

Show us your talent, perform Lady In Spain!

Here you can post a video or audio performance. Tell me more ...
Where can we find your performance? Tell me more ...
Your comment:
Please, log in to post your performance.