Artists by letter: A B C D E F G H I J K L M N O P Q R S T U V W X Y Z 0-9

 
Livin In Sin
----------------------------------------------------------------------------
                     Livin In Sin - Godsmack
-------------------------------------------------------------------------------
Tabbed by: Element215
Email: Element_2552@hotmail.com

This is my first tab so if theres anything wrong let me know but don't rip my head off 
it. Its kind of hard to understand reading it but when you listen to the song you'll get 
I'll post the solo when I figure it all out. Have fun!

Tuning: DADGBe

Intro/Verse   0:26
e|-----------------------------------------------------------------------------|
B|-----------------------------------------------------------------------------|
G|-----------------------------------------------------------------------------|
D|-0-0--0p3-3/2---0-0--0p2-2p0---0-0-------------------------------------------|
A|-0-0------------0-0------------0-0--5p3-3p0--0p1--1--1p0---------------------|
D|-0-0------------0-0------------0-0-------------------------------------------|
   . .            . .            . .
     Pre-Chorus  1:09
e|-----------------------------------------------------------------------------|
B|-----------------------------------------------------------------------------|
G|-----------------------------------------------------------------------------|
D|-888888888888888888-8--------------------------------------------------------|
A|-888888888888888888-8--------------------------------------------------------|
D|-888888888888888888-8--------------------------------------------------------|
    Chorus     1:15                              x2  on 3rd time do this:
e|------------------------------------------------|----------------------------|
B|------------------------------------------------|----------------------------|
G|------------------------------------------------|----------------------------|
D|-00-0p3-3p2---00-0p2-2p0---00---------888888/10-|-00-0p3-3p2---00-0p5-5p2----|
A|-00-----------00-----------00-5p3-3p0-888888/10-|-00-----------00------------|
D|-00-----------00-----------00---------888888/10-|-00-----------00------------|

e|-----------------------------------------------------------------------------|
B|-----------------------------------------------------------------------------|
G|-----------------------------------------------------------------------------|
D|-00----------888888/10---00-0p3-3p2---00---------8~--------------------------|
A|-00-5p3-3p0--888888/10---00-----------00-5p3-3p0-8~--------------------------|
D|-00----------888888/10---00-----------00---------8~--------------------------|
   Bridge    2:40
e|-----------------------------------------------------------------------------|
B|-----------------------------------------------------------------------------|
G|--------------7~----------------7~---------------7~----------5~-5----5-------|
D|-3---3-5-3-0--7~---3---3-5-3-0--7~---3---3-5-3-0-7~--------5------5----5-----|
A|---5----------5~-----5----------5~-----5---------5~--3--3-----------3----3---|
D|-----------------------------------------------------------------------------|
   Outro     3:41
e|----------------------------------------------|------------------------------|
B|----------------------------------------------|------------------------------|
G|----------------------------------------------|------------------------------|
D|-00-0p3-3p2---00-0p2-2p0---00---------88888/10|-00-0p3-3p2---00-0p5-5p3------|
A|-00-----------00-----------00-5p3-3p0-88888/10|-00-----------00--------------|
D|-00-----------00-----------00---------88888/10|-00-----------00--------------|

e|--------------------|--------------------------------------------------------|
B|--------------------|--------------------------------------------------------|
G|--------------------|--------------------------------------------------------|
D|-00---------88888/10|-00-0p3-3p2---00---------8~-----------------------------|
A|-00-5p3-3p0-88888/10|-00-----------00-5p3-3p0-8~-----------------------------|
D|-00---------88888/10|-00-----------00---------8~-----------------------------|

| /  slide up
|   slide down
| h  hammer-on
| p  pull-off
| ~  vibrato
| +  harmonic
| x  Mute note
| .  Palm Mute
| b  Bend
============================================================================
 
 
Godsmack - Livin In Sin :: indexed at Ultimate Guitar.
Livin In Sin tabs @ 911Tabs

About the artist behind Livin In Sin:

Godsmack is an American hard rock band from Lawrence, Massachusetts, formed in 1996. The band comprises founder, frontman and songwriter Sully Erna, guitarist Tony Rombola, bassist Robbie Merrill and drummer Shannon Larkin. Since its formation, Godsmack has released four studio albums, one EP, four DVDs, and one greatest hits collection.

Godsmack has sold over 10 million albums in the United States with an additional two million worldwide. The band has had two number one albums (Faceless and IV) on the Billboard 200, which ranks the sales of all popular music. They have had fifteen top ten mainstream rock singles, a debut album selling over five million copies in just two years and have also been nominated for three Grammy Awards.

Indexed at Wikipedia.

Show us your talent, perform Livin In Sin!

Here you can post a video or audio performance. Tell me more ...
Where can we find your performance? Tell me more ...
Your comment:
Please, log in to post your performance.