Artists by letter: A B C D E F G H I J K L M N O P Q R S T U V W X Y Z 0-9
 
El Sueno De La Gitana Tab
Intro:
A)

e |----------------------------------------------------|
B |----------------------------------------------------|
G |-15p-12----17p-12----15p-12----14p-12----15p-12-----| twice
D |-------12--------12--------12--------12--------12---|
A |----------------------------------------------------|
E |----------------------------------------------------|

B)

e |-----------------------------------------|
B |-----------------------------------------|
G |-12p-8---10p-8---12p-8---10p-8--12p-8----| twice
D |------8-------8-------8-------8------8---|
A |-----------------------------------------|
E |-----------------------------------------|

C)

e |---------------------------------|
B |---------------------------------|
G |-8p-5---7p-5---8p-5---7p-5---8~--| twice
D |-----5------5------5------5------|
A |---------------------------------|
E |---------------------------------|


e |--------------------------------------------------------------|
B |----------------------------------------10p-7---11p-7---10p-7-|
G |-11p-7---9p-7---11p-7---9p-7---11p-7---------7-------7-------7|
D |------7------7-------7------7-------7-------------------------|
A |--------------------------------------------------------------|
E |--------------------------------------------------------------|

e |-------------|
B |--11p-7---10~|
G |-------7-----|
D |-------------|
A |-------------|
E |-------------|

Repeat A) B) C)
and then

e |---------------------------------------------|
B |--------------------------------/15-13-------|
G |-11p-7---9p-7---11p-7---9p-7----------15-14~-|
D |------7------7-------7------7----------------|
A |---------------------------------------------|
E |---------------------------------------------|

Verse:


G  		        C          G
     Danza gitana, tu fuerza sera

    D#          A#           F
     fuente de mi inspiraci0n

    D
     En tu mirada, en tu boca de fuego

    G     D#      D
     esta el amor.

    G                        C         G
     Saca la herrumbre, de todo mi ser

    D#        A#         F
     devuélveme la pasi0n

    D
     dama tu sangre, podra hacer latir

    G     D#      D
     a mi coraz0n.


Chorus:
    F             A#
     tus labios me pueden sanar

    D             G
     heridas del tiempo y quizas

    D#            G     D#      C      D
     un dia me ensenes, toda la verdad

    F            A#
     Gitana tu puedes leer

    D            G
     mis manos y asi conocer

    D#          G            D#        C         D
     que mi amor y tu amor, juntos quieren estar.

Intro.

Verse:

    G             C                    G
     Donde estaran esas brujas que ayer

    D#          A#            F
     mi fuerza hicieron morir

    D                                G    D#    D
     Ven a ayudarme, mi dulce gitana a revivir.

    G                   C                G
     no te das cuenta, lo solo que estoy

    D#          A#           F
     ven pronto, ven hacia mi

    D                                       G       D#    D
     solo el perfume de tu piel me haria, sonar, sentir

Chorus:

    F        A#
     resulta dificil creer

    D         G
     cuanto necesito de vos

    D#            G     D#      C    D
     quisiera tenerte, tu boca besar

    F         A#
     Quizas algun dia vendras

    D             G
     Vendras a calmar mi dolor

    D#         G          D#         C           D
     y tu amor y mi amor, juntos siempre estaran.

Solo:
     e |-------------------------------------------------------------|
B |------------------------------------------------------------------|
G |-5b(7)5b(7)--/8-7-5-/7--/8-7-5-7-5----------/7777/77777777--------|
D |----------------------------------8-7-8-7-5-----------------------|
A |------------------------------------------------------------------|
E |------------------------------------------------------------------|

e |-------------|
B |-------------|
G |-5-7-8-7-5-7-|
D |-------------|
A |-------------|
E |-------------|

e |-----------------------------------------------------------|
B |--6-----------------------------------------8-6---6--------|
G |-8-8-7-5-------------------------5---5-7-5-7---8-7-8-7-5-7~|
D |--------8-7-8-7-5---7-5-7-8-5-7-8-7-8---8------------------|
A |-----------------------------------------------------------|
E |-----------------------------------------------------------|

e |-2-3-5-2-3-5-6-3-5-6-8-5-6-8-5-6-8-10-8-6-5-8-6-5-3--------|
B |---------------------------------------------------4-3~----|
G |-----------------------------------------------------------|
D |-----------------------------------------------------------|
A |-----------------------------------------------------------|
E |-----------------------------------------------------------|

e |-11p-8--13p-8--11p-8--13p-8--11p-8---6p-3--5p-3--6p-3--5p-3|
B |------8------8------8------8------8------3-----3-----3-----|
G |-----------------------------------------------------------|
D |-----------------------------------------------------------|
A |-----------------------------------------------------------|
E |-----------------------------------------------------------|

e |--6p-3--|
B |3-----3-|
G |--------|
D |--------|
A |--------|
E |--------|


e |-9------9--9-11-12-9-12-15-18-15-------------------------|
B |--11--11-11---------------------19-17-19b(20)-19-17-/19~-|
G |----11---------------------------------------------------|
D |---------------------------------------------------------|
A |---------------------------------------------------------|
E |---------------------------------------------------------|

e |-8p6p5-8p6p5-8p6p5-8p6p5-8p6p5-8p6p5-8p6p5-8p6p5-|
B |-------------------------------------------------|
G |-------------------------------------------------|
D |-------------------------------------------------|
A |-------------------------------------------------|
E |-------------------------------------------------|


e |-10p8p6-10p8p6-10p8p6-10p8p6-10p8p6-10p8p6-10p8p6-10p8p6---|
B |-----------------------------------------------------------|
G |-----------------------------------------------------------|
D |-----------------------------------------------------------|
A |-----------------------------------------------------------|
E |-----------------------------------------------------------|


e |-5p3p2-5p3p2-5p3p2-5p3p2-5p3p2-5p3p2-5p3p2-5-6p5p3-----6p5p3---/15~|
B |--------------------------------------------------6p4p3-----6p4----|
G |-------------------------------------------------------------------|
D |-------------------------------------------------------------------|
A |-------------------------------------------------------------------|
E |-------------------------------------------------------------------|

e |-b17(18)-17p15-15~-b17(18)-17p15-15~-b17(18)-17-15--15-17-15-|
B |--------------------------------------------------17---------|
G |-------------------------------------------------------------|
D |-------------------------------------------------------------|
A |-------------------------------------------------------------|
E |-------------------------------------------------------------|

e |14h15p14-------|
B |--------16-15~-|
G |---------------|
D |---------------|
A |---------------|
E |---------------|

e |----10-11-----/11-10-------/10-8---------/8------------------|
B |-/13-----13~--------13-11~------11-10~-----11-10-11~--/13-15-|
G |-------------------------------------------------------------|
D |-------------------------------------------------------------|
A |-------------------------------------------------------------|
E |-------------------------------------------------------------|

e |--/17~-/13-----/15~-|
B |16--------16-15-----|
G |--------------------|
D |--------------------|
A |--------------------|
E |--------------------|

e |----10-11---10-11--15------15---15-18-21-18-15-----------------|
B |-/13------13---------17--17---17--------------17--17--/19-15~~-|
G |-----------------------18-----------------------18-------------|
D |---------------------------------------------------------------|
A |---------------------------------------------------------------|
E |---------------------------------------------------------------|


Verse:

    G               C               G
     Danza gitana, hermosa y sensual

    D#         A#         F
     dame tu dulce verdad,

    D
     dame memoria, que ya no recuerdo

    G      D#     D
     lo que es amar.

    G                   C          G
     te esperaré y algun dia veré

    D#          A#          F
     tus largas faldas volar

    D
     y sus colores daran nueva vida

    G       D#      D
     a mi ser veras.

Chorus:
    F          A#
     Gitana por siempre seras

    D           G
     la fuerza que me salvara

    D#            G
     espero que llegues

    D#     C        D
     y juntos luchar.

    F           A#
     No debes negar tu misi0n

    D                 G
     lo escrito no puede cambiar

    D#          G
     mi canci0n te avis0

    D#          C         D
     yo solo puedo esperar.


Intro


END

Tablature player for this song:
 
 
Rata Blanca - El Sueno De La Gitana Tab :: indexed at Ultimate Guitar.
El Sueno De La Gitana tabs @ 911Tabs
People who played Rata Blanca - El Sueno De La Gitana Tab also played these songs by Rata Blanca:
Blues Tab, Mujer Amante Chords, Mujer Amante Tab, Abeja Reina Tab, Aun Estas En Mis Suenos Chords, Aun Estas En Mis Suieos Chords

Quick tip, so you can enjoy El Sueno De La Gitana Tab even more:

After the registration (which takes just 10 seconds, remember?) you will be able to use your profile - your very own piece of YourChords.com.

Show us your talent, perform El Sueno De La Gitana Tab!

Here you can post a video or audio performance. Tell me more ...
Where can we find your performance? Tell me more ...
Your comment:
Please, log in to post your performance.